999
Dxf file generated by netDxf https://netdxf.codeplex.com, Copyright(C) 2009-2016 Daniel Carvajal, Licensed under LGPL
0
SECTION
2
HEADER
9
$ACADVER
1
AC1024
9
$DWGCODEPAGE
3
ANSI_1252
9
$LASTSAVEDBY
1
VertiGIS DXF export for ArcMap Ver. 1.2.1.1 / 25.08.2021 05:00
9
$HANDSEED
5
BE
9
$ANGBASE
50
0.0
9
$ANGDIR
70
0
9
$ATTMODE
70
1
9
$AUNITS
70
0
9
$AUPREC
70
0
9
$CECOLOR
62
256
9
$CELTSCALE
40
1.0
9
$CELTYPE
6
ByLayer
9
$CELWEIGHT
370
-1
9
$CLAYER
8
0
9
$CMLJUST
70
0
9
$CMLSCALE
40
20.0
9
$CMLSTYLE
2
Standard
9
$DIMSTYLE
2
Standard
9
$TEXTSIZE
40
2.5
9
$TEXTSTYLE
7
Standard
9
$LUNITS
70
2
9
$LUPREC
70
4
9
$EXTNAMES
290
1
9
$INSBASE
10
0.0
20
0.0
30
0.0
9
$INSUNITS
70
0
9
$LTSCALE
40
1.0
9
$LWDISPLAY
290
0
9
$PDMODE
70
0
9
$PDSIZE
40
0.0
9
$PLINEGEN
70
0
9
$PSLTSCALE
70
1
9
$TDCREATE
40
2460403.67610383
9
$TDUCREATE
40
2460403.5927705
9
$TDUPDATE
40
2460403.67610383
9
$TDUUPDATE
40
2460403.5927705
9
$TDINDWG
40
0.0
9
$DIMADEC
70
0
9
$DIMAUNIT
70
0
9
$DIMASZ
40
0.18
9
$DIMAZIN
70
0
9
$DIMSAH
70
0
9
$DIMBLK
1

9
$DIMLDRBLK
1

9
$DIMCEN
40
0.09
9
$DIMCLRD
70
0
9
$DIMCLRE
70
0
9
$DIMCLRT
70
0
9
$DIMDEC
70
2
9
$DIMDLE
40
0.0
9
$DIMDLI
40
0.38
9
$DIMDSEP
70
46
9
$DIMEXE
40
0.18
9
$DIMEXO
40
0.0625
9
$DIMGAP
40
0.09
9
$DIMJUST
70
0
9
$DIMLFAC
40
1.0
9
$DIMLUNIT
70
2
9
$DIMLWD
70
-2
9
$DIMLWE
70
-2
9
$DIMPOST
1
<>
9
$DIMRND
40
0.0
9
$DIMSCALE
40
1.0
9
$DIMSD1
70
0
9
$DIMSD2
70
0
9
$DIMSE1
70
0
9
$DIMSE2
70
0
9
$DIMTAD
70
1
9
$DIMTIH
70
0
9
$DIMTOH
70
0
9
$DIMTXT
40
0.18
9
$DIMZIN
70
0
9
$DIMFRAC
70
0
9
$DIMLTYPE
6
ByBlock
9
$DIMLTEX1
6
ByBlock
9
$DIMLTEX2
6
ByBlock
0
ENDSEC
0
SECTION
2
CLASSES
0
CLASS
1
RASTERVARIABLES
2
AcDbRasterVariables
3
ISM
90
0
91
1
280
0
281
0
0
ENDSEC
0
SECTION
2
TABLES
0
TABLE
2
APPID
5
4
330
0
100
AcDbSymbolTable
70
4
0
APPID
5
17
330
4
100
AcDbSymbolTableRecord
100
AcDbRegAppTableRecord
2
ACAD
70
0
0
APPID
5
B3
330
4
100
AcDbSymbolTableRecord
100
AcDbRegAppTableRecord
2
AcCmTransparency
70
0
0
APPID
5
B4
330
4
100
AcDbSymbolTableRecord
100
AcDbRegAppTableRecord
2
GradientColor1ACI
70
0
0
APPID
5
B5
330
4
100
AcDbSymbolTableRecord
100
AcDbRegAppTableRecord
2
GradientColor2ACI
70
0
0
ENDTAB
0
TABLE
2
VPORT
5
1
330
0
100
AcDbSymbolTable
70
1
0
VPORT
5
2
330
1
100
AcDbSymbolTableRecord
100
AcDbViewportTableRecord
2
*Active
70
0
10
0.0
20
0.0
11
1.0
21
1.0
12
0.0
22
0.0
13
0.0
23
0.0
14
0.5
24
0.5
15
10.0
25
10.0
16
0.0
26
0.0
36
1.0
17
0.0
27
0.0
37
0.0
40
10.0
41
1.0
75
0
76
1
0
ENDTAB
0
TABLE
2
LTYPE
5
6
330
0
100
AcDbSymbolTable
70
6
0
LTYPE
5
13
330
6
100
AcDbSymbolTableRecord
100
AcDbLinetypeTableRecord
70
0
2
Continuous
3
Solid line
72
65
73
0
40
0.0
0
LTYPE
5
14
330
6
100
AcDbSymbolTableRecord
100
AcDbLinetypeTableRecord
70
0
2
ByLayer
3

72
65
73
0
40
0.0
0
LTYPE
5
15
330
6
100
AcDbSymbolTableRecord
100
AcDbLinetypeTableRecord
70
0
2
ByBlock
3

72
65
73
0
40
0.0
0
LTYPE
5
91
330
6
100
AcDbSymbolTableRecord
100
AcDbLinetypeTableRecord
70
0
2
11
3

72
65
73
8
40
3.35138888888889
49
1.23472222222222
74
0
49
-0.35277777777778
74
0
49
0.35277777777778
74
0
49
-0.17638888888889
74
0
49
0.35277777777778
74
0
49
-0.17638888888889
74
0
49
0.35277777777778
74
0
49
-0.35277777777778
74
0
0
LTYPE
5
9F
330
6
100
AcDbSymbolTableRecord
100
AcDbLinetypeTableRecord
70
0
2
12
3

72
65
73
8
40
3.35138888888889
49
1.23472222222222
74
0
49
-0.35277777777778
74
0
49
0.35277777777778
74
0
49
-0.17638888888889
74
0
49
0.35277777777778
74
0
49
-0.17638888888889
74
0
49
0.35277777777778
74
0
49
-0.35277777777778
74
0
0
LTYPE
5
A1
330
6
100
AcDbSymbolTableRecord
100
AcDbLinetypeTableRecord
70
0
2
13
3

72
65
73
6
40
2.82222222222222
49
1.23472222222222
74
0
49
-0.35277777777778
74
0
49
0.35277777777778
74
0
49
-0.17638888888889
74
0
49
0.35277777777778
74
0
49
-0.35277777777778
74
0
0
ENDTAB
0
TABLE
2
LAYER
5
5
330
0
100
AcDbSymbolTable
70
12
0
LAYER
5
12
330
5
100
AcDbSymbolTableRecord
100
AcDbLayerTableRecord
2
0
70
0
62
7
6
Continuous
290
1
370
-3
390
0
0
LAYER
5
20
330
5
100
AcDbSymbolTableRecord
100
AcDbLayerTableRecord
2
Nom_contruction_spéciale_(L)
70
0
62
7
6
Continuous
290
1
370
-3
390
0
0
LAYER
5
23
330
5
100
AcDbSymbolTableRecord
100
AcDbLayerTableRecord
2
Mat._Diamètre_conduite_(L)
70
0
62
7
6
Continuous
290
1
370
-3
390
0
0
LAYER
5
2F
330
5
100
AcDbSymbolTableRecord
100
AcDbLayerTableRecord
2
Armature_(Vannes_incorporées)
70
0
62
7
6
Continuous
290
1
370
-3
390
0
0
LAYER
5
37
330
5
100
AcDbSymbolTableRecord
100
AcDbLayerTableRecord
2
Armature_(Vannes_normales)
70
0
62
7
6
Continuous
290
1
370
-3
390
0
0
LAYER
5
4E
330
5
100
AcDbSymbolTableRecord
100
AcDbLayerTableRecord
2
Ouvrage_spécial_(Poste_de_détente)
70
0
62
7
6
Continuous
290
1
370
-3
390
0
0
LAYER
5
55
330
5
100
AcDbSymbolTableRecord
100
AcDbLayerTableRecord
2
Branchement_d'immeuble
70
0
62
7
6
Continuous
290
1
370
-3
390
0
0
LAYER
5
5C
330
5
100
AcDbSymbolTableRecord
100
AcDbLayerTableRecord
2
Composant_de_conduite
70
0
62
7
6
Continuous
290
1
370
-3
390
0
0
LAYER
5
8F
330
5
100
AcDbSymbolTableRecord
100
AcDbLayerTableRecord
2
Conduites_(transports__distribution)
70
0
62
7
6
Continuous
290
1
370
-3
390
0
0
LAYER
5
9D
330
5
100
AcDbSymbolTableRecord
100
AcDbLayerTableRecord
2
Conduites_(branchements__privé)
70
0
62
7
6
Continuous
290
1
370
-3
390
0
0
LAYER
5
A4
330
5
100
AcDbSymbolTableRecord
100
AcDbLayerTableRecord
2
Autres_points
70
0
62
7
6
Continuous
290
1
370
-3
390
0
0
LAYER
5
AB
330
5
100
AcDbSymbolTableRecord
100
AcDbLayerTableRecord
2
_admin.adm_ext_geo_commandes_asitvd
70
0
62
7
6
Continuous
290
1
370
-3
390
0
0
ENDTAB
0
TABLE
2
STYLE
5
7
330
0
100
AcDbSymbolTable
70
4
0
STYLE
5
16
330
7
100
AcDbSymbolTableRecord
100
AcDbTextStyleTableRecord
2
Standard
3
simplex.shx
70
0
71
0
40
0.0
41
1.0
42
0.0
50
0.0
0
STYLE
5
22
330
7
100
AcDbSymbolTableRecord
100
AcDbTextStyleTableRecord
2
TS[Nom_contruction_spéciale_(L)[Arial_9_Regular__CW100_]]
3
C:\WINDOWS\FONTS\ARIAL.TTF
70
0
71
0
40
1.158875
41
1.0
42
1.158875
50
0.0
1001
ACAD
1000
Arial
1071
0
0
STYLE
5
25
330
7
100
AcDbSymbolTableRecord
100
AcDbTextStyleTableRecord
2
TS[Mat._Diamètre_conduite_(L)[Arial_5_Regular__CW100_]]
3
C:\WINDOWS\FONTS\ARIAL.TTF
70
0
71
0
40
0.64381944444444
41
1.0
42
0.64381944444444
50
0.0
1001
ACAD
1000
Arial
1071
0
0
STYLE
5
27
330
7
100
AcDbSymbolTableRecord
100
AcDbTextStyleTableRecord
2
TS[Mat._Diamètre_conduite_(L)[Arial_3_Regular__CW100_]]
3
C:\WINDOWS\FONTS\ARIAL.TTF
70
0
71
0
40
0.38629166666667
41
1.0
42
0.38629166666667
50
0.0
1001
ACAD
1000
Arial
1071
0
0
ENDTAB
0
TABLE
2
DIMSTYLE
5
8
330
0
100
AcDbSymbolTable
70
1
100
AcDbDimStyleTable
0
DIMSTYLE
105
18
330
8
100
AcDbSymbolTableRecord
100
AcDbDimStyleTableRecord
2
Standard
70
0
3
<>
40
1.0
41
0.18
42
0.0625
43
0.38
44
0.18
45
0.0
46
0.0
73
0
74
0
75
0
76
0
77
1
78
0
79
0
140
0.18
141
0.09
144
1.0
147
0.09
176
0
177
0
178
0
179
0
271
2
275
0
276
0
277
2
278
46
280
0
281
0
282
0
340
16
173
0
345
15
346
15
347
15
371
-2
372
-2
0
ENDTAB
0
TABLE
2
VIEW
5
3
330
0
100
AcDbSymbolTable
70
0
0
ENDTAB
0
TABLE
2
UCS
5
A
330
0
100
AcDbSymbolTable
70
0
0
ENDTAB
0
TABLE
2
BLOCK_RECORD
5
B
330
0
100
AcDbSymbolTable
70
13
0
BLOCK_RECORD
5
1A
330
B
100
AcDbSymbolTableRecord
100
AcDbBlockTableRecord
2
*Model_Space
340
1E
0
BLOCK_RECORD
5
32
330
B
100
AcDbSymbolTableRecord
100
AcDbBlockTableRecord
2
1
340
0
70
0
280
1
281
0
1001
ACAD
1000
DesignCenter Data
1002
{
1070
1
1070
0
1002
}
0
BLOCK_RECORD
5
3A
330
B
100
AcDbSymbolTableRecord
100
AcDbBlockTableRecord
2
2
340
0
70
0
280
1
281
0
1001
ACAD
1000
DesignCenter Data
1002
{
1070
1
1070
0
1002
}
0
BLOCK_RECORD
5
49
330
B
100
AcDbSymbolTableRecord
100
AcDbBlockTableRecord
2
3
340
0
70
0
280
1
281
0
1001
ACAD
1000
DesignCenter Data
1002
{
1070
1
1070
0
1002
}
0
BLOCK_RECORD
5
51
330
B
100
AcDbSymbolTableRecord
100
AcDbBlockTableRecord
2
4
340
0
70
0
280
1
281
0
1001
ACAD
1000
DesignCenter Data
1002
{
1070
1
1070
0
1002
}
0
BLOCK_RECORD
5
58
330
B
100
AcDbSymbolTableRecord
100
AcDbBlockTableRecord
2
5
340
0
70
0
280
1
281
0
1001
ACAD
1000
DesignCenter Data
1002
{
1070
1
1070
0
1002
}
0
BLOCK_RECORD
5
5F
330
B
100
AcDbSymbolTableRecord
100
AcDbBlockTableRecord
2
6
340
0
70
0
280
1
281
0
1001
ACAD
1000
DesignCenter Data
1002
{
1070
1
1070
0
1002
}
0
BLOCK_RECORD
5
65
330
B
100
AcDbSymbolTableRecord
100
AcDbBlockTableRecord
2
7
340
0
70
0
280
1
281
0
1001
ACAD
1000
DesignCenter Data
1002
{
1070
1
1070
0
1002
}
0
BLOCK_RECORD
5
6D
330
B
100
AcDbSymbolTableRecord
100
AcDbBlockTableRecord
2
8
340
0
70
0
280
1
281
0
1001
ACAD
1000
DesignCenter Data
1002
{
1070
1
1070
0
1002
}
0
BLOCK_RECORD
5
7D
330
B
100
AcDbSymbolTableRecord
100
AcDbBlockTableRecord
2
9
340
0
70
0
280
1
281
0
1001
ACAD
1000
DesignCenter Data
1002
{
1070
1
1070
0
1002
}
0
BLOCK_RECORD
5
85
330
B
100
AcDbSymbolTableRecord
100
AcDbBlockTableRecord
2
10
340
0
70
0
280
1
281
0
1001
ACAD
1000
DesignCenter Data
1002
{
1070
1
1070
0
1002
}
0
BLOCK_RECORD
5
A7
330
B
100
AcDbSymbolTableRecord
100
AcDbBlockTableRecord
2
14
340
0
70
0
280
1
281
0
1001
ACAD
1000
DesignCenter Data
1002
{
1070
1
1070
0
1002
}
0
BLOCK_RECORD
5
AD
330
B
100
AcDbSymbolTableRecord
100
AcDbBlockTableRecord
2
*Paper_Space
340
B2
0
ENDTAB
0
ENDSEC
0
SECTION
2
BLOCKS
0
BLOCK
5
1C
330
1A
100
AcDbEntity
8
0
100
AcDbBlockBegin
2
*Model_Space
70
0
10
0.0
20
0.0
30
0.0
3
*Model_Space
0
ENDBLK
5
1B
330
1A
100
AcDbEntity
8
0
100
AcDbBlockEnd
0
BLOCK
5
34
330
32
100
AcDbEntity
8
Armature_(Vannes_incorporées)
100
AcDbBlockBegin
2
1
70
0
10
0.0
20
0.0
30
0.0
3
1
0
HATCH
5
35
330
32
100
AcDbEntity
8
0
62
7
420
16777215
6
ByLayer
370
-1
48
1.0
60
0
100
AcDbHatch
10
0.0
20
0.0
30
0.0
210
0.0
220
0.0
230
1.0
2
SOLID
70
1
71
0
91
1
92
5
93
4
72
4
94
2
73
1
74
0
95
9
96
6
40
0.0
40
0.0
40
0.0
40
1.0
40
2.0
40
3.0
40
4.0
40
4.0
40
4.0
10
1.584
20
0.0
42
1.0
10
1.584
20
-0.328
42
1.0
10
1.336
20
-0.904
42
1.0
10
0.904
20
-1.336
42
1.0
10
0.328
20
-1.584
42
1.0
10
0.0
20
-1.584
42
1.0
97
0
72
4
94
2
73
1
74
0
95
9
96
6
40
0.0
40
0.0
40
0.0
40
1.0
40
2.0
40
3.0
40
4.0
40
4.0
40
4.0
10
0.0
20
-1.584
42
1.0
10
-0.328
20
-1.584
42
1.0
10
-0.904
20
-1.336
42
1.0
10
-1.336
20
-0.904
42
1.0
10
-1.584
20
-0.328
42
1.0
10
-1.584
20
0.0
42
1.0
97
0
72
4
94
2
73
1
74
0
95
9
96
6
40
0.0
40
0.0
40
0.0
40
1.0
40
2.0
40
3.0
40
4.0
40
4.0
40
4.0
10
-1.584
20
0.0
42
1.0
10
-1.584
20
0.328
42
1.0
10
-1.336
20
0.904
42
1.0
10
-0.904
20
1.336
42
1.0
10
-0.328
20
1.584
42
1.0
10
0.0
20
1.584
42
1.0
97
0
72
4
94
2
73
1
74
0
95
9
96
6
40
0.0
40
0.0
40
0.0
40
1.0
40
2.0
40
3.0
40
4.0
40
4.0
40
4.0
10
0.0
20
1.584
42
1.0
10
0.328
20
1.584
42
1.0
10
0.904
20
1.336
42
1.0
10
1.336
20
0.904
42
1.0
10
1.584
20
0.328
42
1.0
10
1.584
20
0.0
42
1.0
97
0
97
0
75
0
76
1
47
0.0
98
1
10
0.0
20
0.0
1001
ACAD
1010
0.0
1020
0.0
1030
0.0
0
HATCH
5
36
330
32
100
AcDbEntity
8
0
62
145
420
41000
6
ByLayer
370
-1
48
1.0
60
0
100
AcDbHatch
10
0.0
20
0.0
30
0.0
210
0.0
220
0.0
230
1.0
2
SOLID
70
1
71
0
91
3
92
5
93
8
72
4
94
2
73
1
74
0
95
6
96
3
40
0.0
40
0.0
40
0.0
40
1.0
40
1.0
40
1.0
10
0.0
20
1.7
42
1.0
10
0.7
20
1.7
42
1.0
10
1.2
20
1.2
42
1.0
97
0
72
4
94
2
73
1
74
0
95
6
96
3
40
0.0
40
0.0
40
0.0
40
1.0
40
1.0
40
1.0
10
1.2
20
1.2
42
1.0
10
1.7
20
0.7
42
1.0
10
1.7
20
0.0
42
1.0
97
0
72
4
94
2
73
1
74
0
95
6
96
3
40
0.0
40
0.0
40
0.0
40
1.0
40
1.0
40
1.0
10
1.7
20
0.0
42
1.0
10
1.7
20
-0.7
42
1.0
10
1.2
20
-1.2
42
1.0
97
0
72
4
94
2
73
1
74
0
95
6
96
3
40
0.0
40
0.0
40
0.0
40
1.0
40
1.0
40
1.0
10
1.2
20
-1.2
42
1.0
10
0.7
20
-1.7
42
1.0
10
0.0
20
-1.7
42
1.0
97
0
72
4
94
2
73
1
74
0
95
6
96
3
40
0.0
40
0.0
40
0.0
40
1.0
40
1.0
40
1.0
10
0.0
20
-1.7
42
1.0
10
-0.7
20
-1.7
42
1.0
10
-1.2
20
-1.2
42
1.0
97
0
72
4
94
2
73
1
74
0
95
6
96
3
40
0.0
40
0.0
40
0.0
40
1.0
40
1.0
40
1.0
10
-1.2
20
-1.2
42
1.0
10
-1.7
20
-0.7
42
1.0
10
-1.7
20
0.0
42
1.0
97
0
72
4
94
2
73
1
74
0
95
6
96
3
40
0.0
40
0.0
40
0.0
40
1.0
40
1.0
40
1.0
10
-1.7
20
0.0
42
1.0
10
-1.7
20
0.7
42
1.0
10
-1.2
20
1.2
42
1.0
97
0
72
4
94
2
73
1
74
0
95
6
96
3
40
0.0
40
0.0
40
0.0
40
1.0
40
1.0
40
1.0
10
-1.2
20
1.2
42
1.0
10
-0.7
20
1.7
42
1.0
10
0.0
20
1.7
42
1.0
97
0
97
0
92
5
93
8
72
4
94
2
73
1
74
0
95
6
96
3
40
0.0
40
0.0
40
0.0
40
1.0
40
1.0
40
1.0
10
0.0
20
1.532
42
1.0
10
-0.632
20
1.532
42
1.0
10
-1.084
20
1.08
42
1.0
97
0
72
4
94
2
73
1
74
0
95
6
96
3
40
0.0
40
0.0
40
0.0
40
1.0
40
1.0
40
1.0
10
-1.084
20
1.08
42
1.0
10
-1.532
20
0.632
42
1.0
10
-1.532
20
0.0
42
1.0
97
0
72
4
94
2
73
1
74
0
95
6
96
3
40
0.0
40
0.0
40
0.0
40
1.0
40
1.0
40
1.0
10
-1.532
20
0.0
42
1.0
10
-1.532
20
-0.636
42
1.0
10
-1.084
20
-1.084
42
1.0
97
0
72
4
94
2
73
1
74
0
95
6
96
3
40
0.0
40
0.0
40
0.0
40
1.0
40
1.0
40
1.0
10
-1.084
20
-1.084
42
1.0
10
-0.636
20
-1.532
42
1.0
10
0.0
20
-1.532
42
1.0
97
0
72
4
94
2
73
1
74
0
95
6
96
3
40
0.0
40
0.0
40
0.0
40
1.0
40
1.0
40
1.0
10
0.0
20
-1.532
42
1.0
10
0.632
20
-1.532
42
1.0
10
1.08
20
-1.084
42
1.0
97
0
72
4
94
2
73
1
74
0
95
6
96
3
40
0.0
40
0.0
40
0.0
40
1.0
40
1.0
40
1.0
10
1.08
20
-1.084
42
1.0
10
1.532
20
-0.632
42
1.0
10
1.532
20
0.0
42
1.0
97
0
72
4
94
2
73
1
74
0
95
6
96
3
40
0.0
40
0.0
40
0.0
40
1.0
40
1.0
40
1.0
10
1.532
20
0.0
42
1.0
10
1.532
20
0.628
42
1.0
10
1.08
20
1.08
42
1.0
97
0
72
4
94
2
73
1
74
0
95
6
96
3
40
0.0
40
0.0
40
0.0
40
1.0
40
1.0
40
1.0
10
1.08
20
1.08
42
1.0
10
0.628
20
1.532
42
1.0
10
0.0
20
1.532
42
1.0
97
0
97
0
92
5
93
8
72
4
94
2
73
1
74
0
95
6
96
3
40
0.0
40
0.0
40
0.0
40
1.0
40
1.0
40
1.0
10
0.0
20
0.796
42
1.0
10
0.324
20
0.796
42
1.0
10
0.56
20
0.56
42
1.0
97
0
72
4
94
2
73
1
74
0
95
6
96
3
40
0.0
40
0.0
40
0.0
40
1.0
40
1.0
40
1.0
10
0.56
20
0.56
42
1.0
10
0.796
20
0.324
42
1.0
10
0.796
20
0.0
42
1.0
97
0
72
4
94
2
73
1
74
0
95
6
96
3
40
0.0
40
0.0
40
0.0
40
1.0
40
1.0
40
1.0
10
0.796
20
0.0
42
1.0
10
0.796
20
-0.324
42
1.0
10
0.56
20
-0.56
42
1.0
97
0
72
4
94
2
73
1
74
0
95
6
96
3
40
0.0
40
0.0
40
0.0
40
1.0
40
1.0
40
1.0
10
0.56
20
-0.56
42
1.0
10
0.328
20
-0.792
42
1.0
10
0.0
20
-0.792
42
1.0
97
0
72
4
94
2
73
1
74
0
95
6
96
3
40
0.0
40
0.0
40
0.0
40
1.0
40
1.0
40
1.0
10
0.0
20
-0.792
42
1.0
10
-0.328
20
-0.792
42
1.0
10
-0.56
20
-0.56
42
1.0
97
0
72
4
94
2
73
1
74
0
95
6
96
3
40
0.0
40
0.0
40
0.0
40
1.0
40
1.0
40
1.0
10
-0.56
20
-0.56
42
1.0
10
-0.792
20
-0.328
42
1.0
10
-0.792
20
0.0
42
1.0
97
0
72
4
94
2
73
1
74
0
95
6
96
3
40
0.0
40
0.0
40
0.0
40
1.0
40
1.0
40
1.0
10
-0.792
20
0.0
42
1.0
10
-0.792
20
0.328
42
1.0
10
-0.56
20
0.56
42
1.0
97
0
72
4
94
2
73
1
74
0
95
6
96
3
40
0.0
40
0.0
40
0.0
40
1.0
40
1.0
40
1.0
10
-0.56
20
0.56
42
1.0
10
-0.324
20
0.796
42
1.0
10
0.0
20
0.796
42
1.0
97
0
97
0
75
0
76
1
47
0.0
98
1
10
0.0
20
0.0
1001
ACAD
1010
0.0
1020
0.0
1030
0.0
0
ENDBLK
5
33
330
32
100
AcDbEntity
8
Armature_(Vannes_incorporées)
100
AcDbBlockEnd
0
BLOCK
5
3C
330
3A
100
AcDbEntity
8
Armature_(Vannes_normales)
100
AcDbBlockBegin
2
2
70
0
10
0.0
20
0.0
30
0.0
3
2
0
HATCH
5
3D
330
3A
100
AcDbEntity
8
0
62
7
420
16777215
6
ByLayer
370
-1
48
1.0
60
0
100
AcDbHatch
10
0.0
20
0.0
30
0.0
210
0.0
220
0.0
230
1.0
2
SOLID
70
1
71
0
91
1
92
5
93
4
72
4
94
2
73
1
74
0
95
9
96
6
40
0.0
40
0.0
40
0.0
40
1.0
40
2.0
40
3.0
40
4.0
40
4.0
40
4.0
10
1.584
20
0.0
42
1.0
10
1.584
20
-0.328
42
1.0
10
1.336
20
-0.904
42
1.0
10
0.904
20
-1.336
42
1.0
10
0.328
20
-1.584
42
1.0
10
0.0
20
-1.584
42
1.0
97
0
72
4
94
2
73
1
74
0
95
9
96
6
40
0.0
40
0.0
40
0.0
40
1.0
40
2.0
40
3.0
40
4.0
40
4.0
40
4.0
10
0.0
20
-1.584
42
1.0
10
-0.328
20
-1.584
42
1.0
10
-0.904
20
-1.336
42
1.0
10
-1.336
20
-0.904
42
1.0
10
-1.584
20
-0.328
42
1.0
10
-1.584
20
0.0
42
1.0
97
0
72
4
94
2
73
1
74
0
95
9
96
6
40
0.0
40
0.0
40
0.0
40
1.0
40
2.0
40
3.0
40
4.0
40
4.0
40
4.0
10
-1.584
20
0.0
42
1.0
10
-1.584
20
0.328
42
1.0
10
-1.336
20
0.904
42
1.0
10
-0.904
20
1.336
42
1.0
10
-0.328
20
1.584
42
1.0
10
0.0
20
1.584
42
1.0
97
0
72
4
94
2
73
1
74
0
95
9
96
6
40
0.0
40
0.0
40
0.0
40
1.0
40
2.0
40
3.0
40
4.0
40
4.0
40
4.0
10
0.0
20
1.584
42
1.0
10
0.328
20
1.584
42
1.0
10
0.904
20
1.336
42
1.0
10
1.336
20
0.904
42
1.0
10
1.584
20
0.328
42
1.0
10
1.584
20
0.0
42
1.0
97
0
97
0
75
0
76
1
47
0.0
98
1
10
0.0
20
0.0
1001
ACAD
1010
0.0
1020
0.0
1030
0.0
0
HATCH
5
3E
330
3A
100
AcDbEntity
8
0
62
145
420
41000
6
ByLayer
370
-1
48
1.0
60
0
100
AcDbHatch
10
0.0
20
0.0
30
0.0
210
0.0
220
0.0
230
1.0
2
SOLID
70
1
71
0
91
3
92
5
93
4
72
4
94
2
73
1
74
0
95
9
96
6
40
0.0
40
0.0
40
0.0
40
1.0
40
2.0
40
3.0
40
4.0
40
4.0
40
4.0
10
1.97
20
0.0
42
1.0
10
1.97
20
-0.41
42
1.0
10
1.66
20
-1.13
42
1.0
10
1.13
20
-1.66
42
1.0
10
0.41
20
-1.97
42
1.0
10
0.0
20
-1.97
42
1.0
97
0
72
4
94
2
73
1
74
0
95
9
96
6
40
0.0
40
0.0
40
0.0
40
1.0
40
2.0
40
3.0
40
4.0
40
4.0
40
4.0
10
0.0
20
-1.97
42
1.0
10
-0.41
20
-1.97
42
1.0
10
-1.13
20
-1.66
42
1.0
10
-1.66
20
-1.13
42
1.0
10
-1.97
20
-0.41
42
1.0
10
-1.97
20
0.0
42
1.0
97
0
72
4
94
2
73
1
74
0
95
9
96
6
40
0.0
40
0.0
40
0.0
40
1.0
40
2.0
40
3.0
40
4.0
40
4.0
40
4.0
10
-1.97
20
0.0
42
1.0
10
-1.97
20
0.41
42
1.0
10
-1.66
20
1.13
42
1.0
10
-1.13
20
1.66
42
1.0
10
-0.41
20
1.97
42
1.0
10
0.0
20
1.97
42
1.0
97
0
72
4
94
2
73
1
74
0
95
9
96
6
40
0.0
40
0.0
40
0.0
40
1.0
40
2.0
40
3.0
40
4.0
40
4.0
40
4.0
10
0.0
20
1.97
42
1.0
10
0.41
20
1.97
42
1.0
10
1.13
20
1.66
42
1.0
10
1.66
20
1.13
42
1.0
10
1.97
20
0.41
42
1.0
10
1.97
20
0.0
42
1.0
97
0
97
0
92
5
93
3
72
4
94
2
73
1
74
0
95
9
96
6
40
0.0
40
0.0
40
0.0
40
1.0
40
2.0
40
3.0
40
4.0
40
4.0
40
4.0
10
-1.53
20
0.0
42
1.0
10
-1.53
20
-0.29
42
1.0
10
-1.33
20
-0.81
42
1.0
10
-0.98
20
-1.21
42
1.0
10
-0.5
20
-1.48
42
1.0
10
-0.22
20
-1.52
42
1.0
97
0
72
1
10
-0.22
20
-1.52
11
-0.22
21
1.51
72
4
94
2
73
1
74
0
95
9
96
6
40
0.0
40
0.0
40
0.0
40
1.0
40
2.0
40
3.0
40
4.0
40
4.0
40
4.0
10
-0.22
20
1.51
42
1.0
10
-0.5
20
1.47
42
1.0
10
-0.98
20
1.21
42
1.0
10
-1.33
20
0.8
42
1.0
10
-1.53
20
0.29
42
1.0
10
-1.53
20
0.0
42
1.0
97
0
97
0
92
5
93
3
72
4
94
2
73
1
74
0
95
9
96
6
40
0.0
40
0.0
40
0.0
40
1.0
40
2.0
40
3.0
40
4.0
40
4.0
40
4.0
10
1.53
20
0.0
42
1.0
10
1.53
20
0.29
42
1.0
10
1.33
20
0.8
42
1.0
10
0.98
20
1.21
42
1.0
10
0.5
20
1.47
42
1.0
10
0.22
20
1.51
42
1.0
97
0
72
1
10
0.22
20
1.51
11
0.22
21
-1.52
72
4
94
2
73
1
74
0
95
9
96
6
40
0.0
40
0.0
40
0.0
40
1.0
40
2.0
40
3.0
40
4.0
40
4.0
40
4.0
10
0.22
20
-1.52
42
1.0
10
0.5
20
-1.48
42
1.0
10
0.98
20
-1.21
42
1.0
10
1.33
20
-0.81
42
1.0
10
1.53
20
-0.29
42
1.0
10
1.53
20
0.0
42
1.0
97
0
97
0
75
0
76
1
47
0.0
98
1
10
0.0
20
0.0
1001
ACAD
1010
0.0
1020
0.0
1030
0.0
0
ENDBLK
5
3B
330
3A
100
AcDbEntity
8
Armature_(Vannes_normales)
100
AcDbBlockEnd
0
BLOCK
5
4B
330
49
100
AcDbEntity
8
Armature_(Vannes_normales)
100
AcDbBlockBegin
2
3
70
0
10
0.0
20
0.0
30
0.0
3
3
0
HATCH
5
4C
330
49
100
AcDbEntity
8
0
62
7
420
16777215
6
ByLayer
370
-1
48
1.0
60
0
100
AcDbHatch
10
0.0
20
0.0
30
0.0
210
0.0
220
0.0
230
1.0
2
SOLID
70
1
71
0
91
1
92
5
93
4
72
4
94
2
73
1
74
0
95
9
96
6
40
0.0
40
0.0
40
0.0
40
1.0
40
2.0
40
3.0
40
4.0
40
4.0
40
4.0
10
1.584
20
0.0
42
1.0
10
1.584
20
-0.328
42
1.0
10
1.336
20
-0.904
42
1.0
10
0.904
20
-1.336
42
1.0
10
0.328
20
-1.584
42
1.0
10
0.0
20
-1.584
42
1.0
97
0
72
4
94
2
73
1
74
0
95
9
96
6
40
0.0
40
0.0
40
0.0
40
1.0
40
2.0
40
3.0
40
4.0
40
4.0
40
4.0
10
0.0
20
-1.584
42
1.0
10
-0.328
20
-1.584
42
1.0
10
-0.904
20
-1.336
42
1.0
10
-1.336
20
-0.904
42
1.0
10
-1.584
20
-0.328
42
1.0
10
-1.584
20
0.0
42
1.0
97
0
72
4
94
2
73
1
74
0
95
9
96
6
40
0.0
40
0.0
40
0.0
40
1.0
40
2.0
40
3.0
40
4.0
40
4.0
40
4.0
10
-1.584
20
0.0
42
1.0
10
-1.584
20
0.328
42
1.0
10
-1.336
20
0.904
42
1.0
10
-0.904
20
1.336
42
1.0
10
-0.328
20
1.584
42
1.0
10
0.0
20
1.584
42
1.0
97
0
72
4
94
2
73
1
74
0
95
9
96
6
40
0.0
40
0.0
40
0.0
40
1.0
40
2.0
40
3.0
40
4.0
40
4.0
40
4.0
10
0.0
20
1.584
42
1.0
10
0.328
20
1.584
42
1.0
10
0.904
20
1.336
42
1.0
10
1.336
20
0.904
42
1.0
10
1.584
20
0.328
42
1.0
10
1.584
20
0.0
42
1.0
97
0
97
0
75
0
76
1
47
0.0
98
1
10
0.0
20
0.0
1001
ACAD
1010
0.0
1020
0.0
1030
0.0
0
HATCH
5
4D
330
49
100
AcDbEntity
8
0
62
25
420
16718594
6
ByLayer
370
-1
48
1.0
60
0
100
AcDbHatch
10
0.0
20
0.0
30
0.0
210
0.0
220
0.0
230
1.0
2
SOLID
70
1
71
0
91
3
92
5
93
4
72
4
94
2
73
1
74
0
95
9
96
6
40
0.0
40
0.0
40
0.0
40
1.0
40
2.0
40
3.0
40
4.0
40
4.0
40
4.0
10
1.97
20
0.0
42
1.0
10
1.97
20
-0.41
42
1.0
10
1.66
20
-1.13
42
1.0
10
1.13
20
-1.66
42
1.0
10
0.41
20
-1.97
42
1.0
10
0.0
20
-1.97
42
1.0
97
0
72
4
94
2
73
1
74
0
95
9
96
6
40
0.0
40
0.0
40
0.0
40
1.0
40
2.0
40
3.0
40
4.0
40
4.0
40
4.0
10
0.0
20
-1.97
42
1.0
10
-0.41
20
-1.97
42
1.0
10
-1.13
20
-1.66
42
1.0
10
-1.66
20
-1.13
42
1.0
10
-1.97
20
-0.41
42
1.0
10
-1.97
20
0.0
42
1.0
97
0
72
4
94
2
73
1
74
0
95
9
96
6
40
0.0
40
0.0
40
0.0
40
1.0
40
2.0
40
3.0
40
4.0
40
4.0
40
4.0
10
-1.97
20
0.0
42
1.0
10
-1.97
20
0.41
42
1.0
10
-1.66
20
1.13
42
1.0
10
-1.13
20
1.66
42
1.0
10
-0.41
20
1.97
42
1.0
10
0.0
20
1.97
42
1.0
97
0
72
4
94
2
73
1
74
0
95
9
96
6
40
0.0
40
0.0
40
0.0
40
1.0
40
2.0
40
3.0
40
4.0
40
4.0
40
4.0
10
0.0
20
1.97
42
1.0
10
0.41
20
1.97
42
1.0
10
1.13
20
1.66
42
1.0
10
1.66
20
1.13
42
1.0
10
1.97
20
0.41
42
1.0
10
1.97
20
0.0
42
1.0
97
0
97
0
92
5
93
3
72
4
94
2
73
1
74
0
95
9
96
6
40
0.0
40
0.0
40
0.0
40
1.0
40
2.0
40
3.0
40
4.0
40
4.0
40
4.0
10
-1.53
20
0.0
42
1.0
10
-1.53
20
-0.29
42
1.0
10
-1.33
20
-0.81
42
1.0
10
-0.98
20
-1.21
42
1.0
10
-0.5
20
-1.48
42
1.0
10
-0.22
20
-1.52
42
1.0
97
0
72
1
10
-0.22
20
-1.52
11
-0.22
21
1.51
72
4
94
2
73
1
74
0
95
9
96
6
40
0.0
40
0.0
40
0.0
40
1.0
40
2.0
40
3.0
40
4.0
40
4.0
40
4.0
10
-0.22
20
1.51
42
1.0
10
-0.5
20
1.47
42
1.0
10
-0.98
20
1.21
42
1.0
10
-1.33
20
0.8
42
1.0
10
-1.53
20
0.29
42
1.0
10
-1.53
20
0.0
42
1.0
97
0
97
0
92
5
93
3
72
4
94
2
73
1
74
0
95
9
96
6
40
0.0
40
0.0
40
0.0
40
1.0
40
2.0
40
3.0
40
4.0
40
4.0
40
4.0
10
1.53
20
0.0
42
1.0
10
1.53
20
0.29
42
1.0
10
1.33
20
0.8
42
1.0
10
0.98
20
1.21
42
1.0
10
0.5
20
1.47
42
1.0
10
0.22
20
1.51
42
1.0
97
0
72
1
10
0.22
20
1.51
11
0.22
21
-1.52
72
4
94
2
73
1
74
0
95
9
96
6
40
0.0
40
0.0
40
0.0
40
1.0
40
2.0
40
3.0
40
4.0
40
4.0
40
4.0
10
0.22
20
-1.52
42
1.0
10
0.5
20
-1.48
42
1.0
10
0.98
20
-1.21
42
1.0
10
1.33
20
-0.81
42
1.0
10
1.53
20
-0.29
42
1.0
10
1.53
20
0.0
42
1.0
97
0
97
0
75
0
76
1
47
0.0
98
1
10
0.0
20
0.0
1001
ACAD
1010
0.0
1020
0.0
1030
0.0
0
ENDBLK
5
4A
330
49
100
AcDbEntity
8
Armature_(Vannes_normales)
100
AcDbBlockEnd
0
BLOCK
5
53
330
51
100
AcDbEntity
8
Ouvrage_spécial_(Poste_de_détente)
100
AcDbBlockBegin
2
4
70
0
10
0.0
20
0.0
30
0.0
3
4
0
HATCH
5
54
330
51
100
AcDbEntity
8
0
62
250
420
0
6
ByLayer
370
-1
48
1.0
60
0
100
AcDbHatch
10
0.0
20
0.0
30
0.0
210
0.0
220
0.0
230
1.0
2
SOLID
70
1
71
0
91
2
92
5
93
4
72
1
10
2.272
20
2.264
11
2.272
21
-2.272
72
1
10
2.272
20
-2.272
11
-2.264
21
-2.272
72
1
10
-2.264
20
-2.272
11
-2.264
21
2.264
72
1
10
-2.264
20
2.264
11
2.272
21
2.264
97
0
92
5
93
5
72
1
10
1.928
20
-1.936
11
1.928
21
1.92
72
1
10
1.928
20
1.92
11
-1.928
21
1.92
72
1
10
-1.928
20
1.92
11
1.928
21
-0.008
72
1
10
1.928
20
-0.008
11
-1.928
21
-1.936
72
1
10
-1.928
20
-1.936
11
1.928
21
-1.936
97
0
75
0
76
1
47
0.0
98
1
10
0.0
20
0.0
1001
ACAD
1010
0.0
1020
0.0
1030
0.0
0
ENDBLK
5
52
330
51
100
AcDbEntity
8
Ouvrage_spécial_(Poste_de_détente)
100
AcDbBlockEnd
0
BLOCK
5
5A
330
58
100
AcDbEntity
8
Branchement_d'immeuble
100
AcDbBlockBegin
2
5
70
0
10
0.0
20
0.0
30
0.0
3
5
0
HATCH
5
5B
330
58
100
AcDbEntity
8
0
62
145
420
41000
6
ByLayer
370
-1
48
1.0
60
0
100
AcDbHatch
10
0.0
20
0.0
30
0.0
210
0.0
220
0.0
230
1.0
2
SOLID
70
1
71
0
91
1
92
5
93
3
72
1
10
-3.07
20
-0.02
11
0.06
21
5.52
72
1
10
0.06
20
5.52
11
3.08
21
-0.02
72
1
10
3.08
20
-0.02
11
-3.07
21
-0.02
97
0
75
0
76
1
47
0.0
98
1
10
0.0
20
0.0
1001
ACAD
1010
0.0
1020
0.0
1030
0.0
0
ENDBLK
5
59
330
58
100
AcDbEntity
8
Branchement_d'immeuble
100
AcDbBlockEnd
0
BLOCK
5
61
330
5F
100
AcDbEntity
8
Composant_de_conduite
100
AcDbBlockBegin
2
6
70
0
10
0.0
20
0.0
30
0.0
3
6
0
HATCH
5
62
330
5F
100
AcDbEntity
8
0
62
250
420
0
6
ByLayer
370
-1
48
1.0
60
0
100
AcDbHatch
10
0.0
20
0.0
30
0.0
210
0.0
220
0.0
230
1.0
2
SOLID
70
1
71
0
91
1
92
5
93
20
72
1
10
-1.16
20
0.85
11
-0.94
21
0.85
72
1
10
-0.94
20
0.85
11
-0.94
21
0.14
72
1
10
-0.94
20
0.14
11
-0.185
21
0.14
72
1
10
-0.185
20
0.14
11
-0.185
21
1.37
72
1
10
-0.185
20
1.37
11
-0.73
21
1.37
72
1
10
-0.73
20
1.37
11
-0.73
21
1.59
72
1
10
-0.73
20
1.59
11
0.73
21
1.59
72
1
10
0.73
20
1.59
11
0.73
21
1.37
72
1
10
0.73
20
1.37
11
0.185
21
1.37
72
1
10
0.185
20
1.37
11
0.185
21
0.14
72
1
10
0.185
20
0.14
11
0.94
21
0.14
72
1
10
0.94
20
0.14
11
0.94
21
0.85
72
1
10
0.94
20
0.85
11
1.16
21
0.85
72
1
10
1.16
20
0.85
11
1.16
21
-0.79
72
1
10
1.16
20
-0.79
11
0.94
21
-0.79
72
1
10
0.94
20
-0.79
11
0.94
21
-0.08
72
1
10
0.94
20
-0.08
11
-0.94
21
-0.08
72
1
10
-0.94
20
-0.08
11
-0.94
21
-0.79
72
1
10
-0.94
20
-0.79
11
-1.16
21
-0.79
72
1
10
-1.16
20
-0.79
11
-1.16
21
0.85
97
0
75
0
76
1
47
0.0
98
1
10
0.0
20
0.0
1001
ACAD
1010
0.0
1020
0.0
1030
0.0
0
ENDBLK
5
60
330
5F
100
AcDbEntity
8
Composant_de_conduite
100
AcDbBlockEnd
0
BLOCK
5
67
330
65
100
AcDbEntity
8
Composant_de_conduite
100
AcDbBlockBegin
2
7
70
0
10
0.0
20
0.0
30
0.0
3
7
0
HATCH
5
68
330
65
100
AcDbEntity
8
0
62
250
420
0
6
ByLayer
370
-1
48
1.0
60
0
100
AcDbHatch
10
0.0
20
0.0
30
0.0
210
0.0
220
0.0
230
1.0
2
SOLID
70
1
71
0
91
2
92
5
93
3
72
1
10
-1.24
20
0.0
11
-2.88
21
-1.01
72
1
10
-2.88
20
-1.01
11
-2.88
21
1.01
72
1
10
-2.88
20
1.01
11
-1.24
21
0.0
97
0
92
5
93
4
72
1
10
-1.24
20
1.01
11
-1.02
21
1.01
72
1
10
-1.02
20
1.01
11
-1.02
21
-1.01
72
1
10
-1.02
20
-1.01
11
-1.24
21
-1.01
72
1
10
-1.24
20
-1.01
11
-1.24
21
1.01
97
0
75
0
76
1
47
0.0
98
1
10
0.0
20
0.0
1001
ACAD
1010
0.0
1020
0.0
1030
0.0
0
ENDBLK
5
66
330
65
100
AcDbEntity
8
Composant_de_conduite
100
AcDbBlockEnd
0
BLOCK
5
6F
330
6D
100
AcDbEntity
8
Composant_de_conduite
100
AcDbBlockBegin
2
8
70
0
10
0.0
20
0.0
30
0.0
3
8
0
HATCH
5
70
330
6D
100
AcDbEntity
8
0
62
250
420
0
6
ByLayer
370
-1
48
1.0
60
0
100
AcDbHatch
10
0.0
20
0.0
30
0.0
210
0.0
220
0.0
230
1.0
2
SOLID
70
1
71
0
91
1
92
5
93
4
72
4
94
2
73
1
74
0
95
9
96
6
40
0.0
40
0.0
40
0.0
40
1.0
40
2.0
40
3.0
40
4.0
40
4.0
40
4.0
10
0.515
20
0.0
42
1.0
10
0.515
20
-0.105
42
1.0
10
0.435
20
-0.295
42
1.0
10
0.295
20
-0.435
42
1.0
10
0.105
20
-0.515
42
1.0
10
0.0
20
-0.515
42
1.0
97
0
72
4
94
2
73
1
74
0
95
9
96
6
40
0.0
40
0.0
40
0.0
40
1.0
40
2.0
40
3.0
40
4.0
40
4.0
40
4.0
10
0.0
20
-0.515
42
1.0
10
-0.105
20
-0.515
42
1.0
10
-0.295
20
-0.435
42
1.0
10
-0.435
20
-0.295
42
1.0
10
-0.515
20
-0.105
42
1.0
10
-0.515
20
0.0
42
1.0
97
0
72
4
94
2
73
1
74
0
95
9
96
6
40
0.0
40
0.0
40
0.0
40
1.0
40
2.0
40
3.0
40
4.0
40
4.0
40
4.0
10
-0.515
20
0.0
42
1.0
10
-0.515
20
0.105
42
1.0
10
-0.435
20
0.295
42
1.0
10
-0.295
20
0.435
42
1.0
10
-0.105
20
0.515
42
1.0
10
0.0
20
0.515
42
1.0
97
0
72
4
94
2
73
1
74
0
95
9
96
6
40
0.0
40
0.0
40
0.0
40
1.0
40
2.0
40
3.0
40
4.0
40
4.0
40
4.0
10
0.0
20
0.515
42
1.0
10
0.105
20
0.515
42
1.0
10
0.295
20
0.435
42
1.0
10
0.435
20
0.295
42
1.0
10
0.515
20
0.105
42
1.0
10
0.515
20
0.0
42
1.0
97
0
97
0
75
0
76
1
47
0.0
98
1
10
0.0
20
0.0
1001
ACAD
1010
0.0
1020
0.0
1030
0.0
0
ENDBLK
5
6E
330
6D
100
AcDbEntity
8
Composant_de_conduite
100
AcDbBlockEnd
0
BLOCK
5
7F
330
7D
100
AcDbEntity
8
Composant_de_conduite
100
AcDbBlockBegin
2
9
70
0
10
0.0
20
0.0
30
0.0
3
9
0
HATCH
5
80
330
7D
100
AcDbEntity
8
0
62
250
420
0
6
ByLayer
370
-1
48
1.0
60
0
100
AcDbHatch
10
0.0
20
0.0
30
0.0
210
0.0
220
0.0
230
1.0
2
SOLID
70
1
71
0
91
1
92
5
93
20
72
1
10
-1.16
20
0.85
11
-0.94
21
0.85
72
1
10
-0.94
20
0.85
11
-0.94
21
0.14
72
1
10
-0.94
20
0.14
11
-0.185
21
0.14
72
1
10
-0.185
20
0.14
11
-0.185
21
1.37
72
1
10
-0.185
20
1.37
11
-0.73
21
1.37
72
1
10
-0.73
20
1.37
11
-0.73
21
1.59
72
1
10
-0.73
20
1.59
11
0.73
21
1.59
72
1
10
0.73
20
1.59
11
0.73
21
1.37
72
1
10
0.73
20
1.37
11
0.185
21
1.37
72
1
10
0.185
20
1.37
11
0.185
21
0.14
72
1
10
0.185
20
0.14
11
0.94
21
0.14
72
1
10
0.94
20
0.14
11
0.94
21
0.85
72
1
10
0.94
20
0.85
11
1.16
21
0.85
72
1
10
1.16
20
0.85
11
1.16
21
-0.79
72
1
10
1.16
20
-0.79
11
0.94
21
-0.79
72
1
10
0.94
20
-0.79
11
0.94
21
-0.08
72
1
10
0.94
20
-0.08
11
-0.94
21
-0.08
72
1
10
-0.94
20
-0.08
11
-0.94
21
-0.79
72
1
10
-0.94
20
-0.79
11
-1.16
21
-0.79
72
1
10
-1.16
20
-0.79
11
-1.16
21
0.85
97
0
75
0
76
1
47
0.0
98
1
10
0.0
20
0.0
1001
ACAD
1010
0.0
1020
0.0
1030
0.0
0
ENDBLK
5
7E
330
7D
100
AcDbEntity
8
Composant_de_conduite
100
AcDbBlockEnd
0
BLOCK
5
87
330
85
100
AcDbEntity
8
Composant_de_conduite
100
AcDbBlockBegin
2
10
70
0
10
0.0
20
0.0
30
0.0
3
10
0
HATCH
5
88
330
85
100
AcDbEntity
8
0
62
250
420
0
6
ByLayer
370
-1
48
1.0
60
0
100
AcDbHatch
10
0.0
20
0.0
30
0.0
210
0.0
220
0.0
230
1.0
2
SOLID
70
1
71
0
91
1
92
5
93
4
72
1
10
-0.6080038
20
2.8000175
11
0.6080038
21
2.8000175
72
1
10
0.6080038
20
2.8000175
11
0.6080038
21
-2.8000175
72
1
10
0.6080038
20
-2.8000175
11
-0.6080038
21
-2.8000175
72
1
10
-0.6080038
20
-2.8000175
11
-0.6080038
21
2.8000175
97
0
75
0
76
1
47
0.0
98
1
10
0.0
20
0.0
1001
ACAD
1010
0.0
1020
0.0
1030
0.0
0
ENDBLK
5
86
330
85
100
AcDbEntity
8
Composant_de_conduite
100
AcDbBlockEnd
0
BLOCK
5
A9
330
A7
100
AcDbEntity
8
Autres_points
100
AcDbBlockBegin
2
14
70
0
10
0.0
20
0.0
30
0.0
3
14
0
HATCH
5
AA
330
A7
100
AcDbEntity
8
0
62
250
420
0
6
ByLayer
370
-1
48
1.0
60
0
100
AcDbHatch
10
0.0
20
0.0
30
0.0
210
0.0
220
0.0
230
1.0
2
SOLID
70
1
71
0
91
2
92
5
93
8
72
1
10
-0.056
20
2.196
11
0.068
21
2.196
72
1
10
0.068
20
2.196
11
0.068
21
0.848
72
1
10
0.068
20
0.848
11
0.704
21
0.848
72
1
10
0.704
20
0.848
11
0.704
21
-0.204
72
1
10
0.704
20
-0.204
11
-0.7
21
-0.204
72
1
10
-0.7
20
-0.204
11
-0.7
21
0.848
72
1
10
-0.7
20
0.848
11
-0.056
21
0.848
72
1
10
-0.056
20
0.848
11
-0.056
21
2.196
97
0
92
5
93
8
72
1
10
-0.052
20
4.204
11
0.076
21
4.204
72
1
10
0.076
20
4.204
11
0.076
21
2.508
72
1
10
0.076
20
2.508
11
0.54
21
2.508
72
1
10
0.54
20
2.508
11
0.54
21
2.384
72
1
10
0.54
20
2.384
11
-0.516
21
2.384
72
1
10
-0.516
20
2.384
11
-0.516
21
2.508
72
1
10
-0.516
20
2.508
11
-0.052
21
2.508
72
1
10
-0.052
20
2.508
11
-0.052
21
4.204
97
0
75
0
76
1
47
0.0
98
1
10
0.0
20
0.0
1001
ACAD
1010
0.0
1020
0.0
1030
0.0
0
ENDBLK
5
A8
330
A7
100
AcDbEntity
8
Autres_points
100
AcDbBlockEnd
0
BLOCK
5
AF
330
AD
100
AcDbEntity
8
0
100
AcDbBlockBegin
2
*Paper_Space
70
0
10
0.0
20
0.0
30
0.0
3
*Paper_Space
0
ENDBLK
5
AE
330
AD
100
AcDbEntity
8
0
100
AcDbBlockEnd
0
ENDSEC
0
SECTION
2
ENTITIES
0
MTEXT
5
21
330
1A
100
AcDbEntity
67
0
8
Nom_contruction_spéciale_(L)
62
145
420
41000
440
33554687
6
ByLayer
370
-1
48
1.0
60
0
100
AcDbMText
10
2506580.59301634
20
1138359.19901709
30
0.0
210
0.0
220
0.0
230
1.0
1
{\fArial|b0|i0;41}
40
1.158875
41
0.0
44
1.0
50
0.0
71
7
72
5
7
TS[Nom_contruction_spéciale_(L)[Arial_9_Regular__CW100_]]
0
MTEXT
5
24
330
1A
100
AcDbEntity
67
0
8
Mat._Diamètre_conduite_(L)
62
145
420
41000
440
33554687
6
ByLayer
370
-1
48
1.0
60
0
100
AcDbMText
10
2506604.95998538
20
1138381.83448458
30
0.0
210
0.0
220
0.0
230
1.0
1
{\fArial|b0|i0;PE100 S8 160}
40
0.64381944444444
41
0.0
44
1.0
50
332.034296576667
71
8
72
5
7
TS[Mat._Diamètre_conduite_(L)[Arial_5_Regular__CW100_]]
0
MTEXT
5
26
330
1A
100
AcDbEntity
67
0
8
Mat._Diamètre_conduite_(L)
62
145
420
41000
440
33554687
6
ByLayer
370
-1
48
1.0
60
0
100
AcDbMText
10
2506585.00700746
20
1138354.08648339
30
0.0
210
0.0
220
0.0
230
1.0
1
{\fArial|b0|i0;PE100 S8 90}
40
0.38629166666667
41
0.0
44
1.0
50
326.929359400649
71
8
72
5
7
TS[Mat._Diamètre_conduite_(L)[Arial_3_Regular__CW100_]]
0
MTEXT
5
28
330
1A
100
AcDbEntity
67
0
8
Mat._Diamètre_conduite_(L)
62
145
420
41000
440
33554687
6
ByLayer
370
-1
48
1.0
60
0
100
AcDbMText
10
2506585.46749642
20
1138355.88301104
30
0.0
210
0.0
220
0.0
230
1.0
1
{\fArial|b0|i0;PE 63}
40
0.38629166666667
41
0.0
44
1.0
50
323.989142900082
71
8
72
5
7
TS[Mat._Diamètre_conduite_(L)[Arial_3_Regular__CW100_]]
0
MTEXT
5
29
330
1A
100
AcDbEntity
67
0
8
Mat._Diamètre_conduite_(L)
62
145
420
41000
440
33554687
6
ByLayer
370
-1
48
1.0
60
0
100
AcDbMText
10
2506583.16600275
20
1138383.56448437
30
0.0
210
0.0
220
0.0
230
1.0
1
{\fArial|b0|i0;PE100 S8 160}
40
0.64381944444444
41
0.0
44
1.0
50
53.1193916545732
71
8
72
5
7
TS[Mat._Diamètre_conduite_(L)[Arial_5_Regular__CW100_]]
0
MTEXT
5
2A
330
1A
100
AcDbEntity
67
0
8
Mat._Diamètre_conduite_(L)
62
145
420
41000
440
33554687
6
ByLayer
370
-1
48
1.0
60
0
100
AcDbMText
10
2506520.53800309
20
1138286.86748543
30
0.0
210
0.0
220
0.0
230
1.0
1
{\fArial|b0|i0;PE100 S8 160}
40
0.64381944444444
41
0.0
44
1.0
50
52.056402034871
71
8
72
5
7
TS[Mat._Diamètre_conduite_(L)[Arial_5_Regular__CW100_]]
0
MTEXT
5
2B
330
1A
100
AcDbEntity
67
0
8
Mat._Diamètre_conduite_(L)
62
145
420
41000
440
33554687
6
ByLayer
370
-1
48
1.0
60
0
100
AcDbMText
10
2506569.40301959
20
1138315.04398814
30
0.0
210
0.0
220
0.0
230
1.0
1
{\fArial|b0|i0;PE100 S8 200}
40
0.64381944444444
41
0.0
44
1.0
50
53.3748157307484
71
8
72
5
7
TS[Mat._Diamètre_conduite_(L)[Arial_5_Regular__CW100_]]
0
MTEXT
5
2C
330
1A
100
AcDbEntity
67
0
8
Mat._Diamètre_conduite_(L)
62
145
420
41000
440
33554687
6
ByLayer
370
-1
48
1.0
60
0
100
AcDbMText
10
2506605.26949763
20
1138363.38101168
30
0.0
210
0.0
220
0.0
230
1.0
1
{\fArial|b0|i0;PE100 S8 200}
40
0.64381944444444
41
0.0
44
1.0
50
53.3901621209208
71
8
72
5
7
TS[Mat._Diamètre_conduite_(L)[Arial_5_Regular__CW100_]]
0
MTEXT
5
2D
330
1A
100
AcDbEntity
67
0
8
Mat._Diamètre_conduite_(L)
62
145
420
41000
440
33554687
6
ByLayer
370
-1
48
1.0
60
0
100
AcDbMText
10
2506524.66748623
20
1138320.40899233
30
0.0
210
0.0
220
0.0
230
1.0
1
{\fArial|b0|i0;PE100 S8 200}
40
0.64381944444444
41
0.0
44
1.0
50
319.55602239414
71
8
72
5
7
TS[Mat._Diamètre_conduite_(L)[Arial_5_Regular__CW100_]]
0
MTEXT
5
2E
330
1A
100
AcDbEntity
67
0
8
Mat._Diamètre_conduite_(L)
62
145
420
41000
440
33554687
6
ByLayer
370
-1
48
1.0
60
0
100
AcDbMText
10
2506619.18951459
20
1138378.82999313
30
0.0
210
0.0
220
0.0
230
1.0
1
{\fArial|b0|i0;PE100 S8 200}
40
0.64381944444444
41
0.0
44
1.0
50
61.8633579415273
71
8
72
5
7
TS[Mat._Diamètre_conduite_(L)[Arial_5_Regular__CW100_]]
0
INSERT
5
31
330
1A
100
AcDbEntity
67
0
8
Armature_(Vannes_incorporées)
62
0
440
33554687
6
ByLayer
370
-1
48
1.0
60
0
100
AcDbBlockReference
2
1
10
2506594.04400935
20
1138347.3769806
30
0.0
41
0.17638888888889
42
0.17638888888889
43
0.17638888888889
50
0.0
210
0.0
220
0.0
230
1.0
0
INSERT
5
39
330
1A
100
AcDbEntity
67
0
8
Armature_(Vannes_normales)
62
0
440
33554687
6
ByLayer
370
-1
48
1.0
60
0
100
AcDbBlockReference
2
2
10
2506614.53399077
20
1138376.15200882
30
0.0
41
0.17638888888889
42
0.17638888888889
43
0.17638888888889
50
60.1112
210
0.0
220
0.0
230
1.0
0
INSERT
5
40
330
1A
100
AcDbEntity
67
0
8
Armature_(Vannes_normales)
62
0
440
33554687
6
ByLayer
370
-1
48
1.0
60
0
100
AcDbBlockReference
2
2
10
2506616.41098761
20
1138377.77100369
30
0.0
41
0.17638888888889
42
0.17638888888889
43
0.17638888888889
50
61.2583
210
0.0
220
0.0
230
1.0
0
INSERT
5
42
330
1A
100
AcDbEntity
67
0
8
Armature_(Vannes_normales)
62
0
440
33554687
6
ByLayer
370
-1
48
1.0
60
0
100
AcDbBlockReference
2
2
10
2506613.39100302
20
1138378.07200599
30
0.0
41
0.17638888888889
42
0.17638888888889
43
0.17638888888889
50
331.3578
210
0.0
220
0.0
230
1.0
0
INSERT
5
44
330
1A
100
AcDbEntity
67
0
8
Armature_(Vannes_normales)
62
0
440
33554687
6
ByLayer
370
-1
48
1.0
60
0
100
AcDbBlockReference
2
2
10
2506538.95197976
20
1138309.22898227
30
0.0
41
0.17638888888889
42
0.17638888888889
43
0.17638888888889
50
323.7153
210
0.0
220
0.0
230
1.0
0
INSERT
5
46
330
1A
100
AcDbEntity
67
0
8
Armature_(Vannes_normales)
62
0
440
33554687
6
ByLayer
370
-1
48
1.0
60
0
100
AcDbBlockReference
2
2
10
2506537.76499052
20
1138310.10300522
30
0.0
41
0.17638888888889
42
0.17638888888889
43
0.17638888888889
50
324.8938
210
0.0
220
0.0
230
1.0
0
INSERT
5
48
330
1A
100
AcDbEntity
67
0
8
Armature_(Vannes_normales)
62
0
440
33554687
6
ByLayer
370
-1
48
1.0
60
0
100
AcDbBlockReference
2
3
10
2506537.92397659
20
1138309.16000153
30
0.0
41
0.17638888888889
42
0.17638888888889
43
0.17638888888889
50
52.0492
210
0.0
220
0.0
230
1.0
0
INSERT
5
50
330
1A
100
AcDbEntity
67
0
8
Ouvrage_spécial_(Poste_de_détente)
62
0
440
33554687
6
ByLayer
370
-1
48
1.0
60
0
100
AcDbBlockReference
2
4
10
2506581.48100564
20
1138357.74201181
30
0.0
41
0.17638888888889
42
0.17638888888889
43
0.17638888888889
50
233.71343196
210
0.0
220
0.0
230
1.0
0
INSERT
5
57
330
1A
100
AcDbEntity
67
0
8
Branchement_d'immeuble
62
0
440
33554687
6
ByLayer
370
-1
48
1.0
60
0
100
AcDbBlockReference
2
5
10
2506586.22686017
20
1138348.29875945
30
0.0
41
0.17638888888889
42
0.17638888888889
43
0.17638888888889
50
143.95518016
210
0.0
220
0.0
230
1.0
0
INSERT
5
5E
330
1A
100
AcDbEntity
67
0
8
Composant_de_conduite
62
0
440
33554687
6
ByLayer
370
-1
48
1.0
60
0
100
AcDbBlockReference
2
6
10
2506615.06501228
20
1138377.18501785
30
0.0
41
0.17638888888889
42
0.17638888888889
43
0.17638888888889
50
150.96645645
210
0.0
220
0.0
230
1.0
0
INSERT
5
64
330
1A
100
AcDbEntity
67
0
8
Composant_de_conduite
62
0
440
33554687
6
ByLayer
370
-1
48
1.0
60
0
100
AcDbBlockReference
2
7
10
2506614.35798478
20
1138377.55900557
30
0.0
41
0.17638888888889
42
0.17638888888889
43
0.17638888888889
50
152.15325127
210
0.0
220
0.0
230
1.0
0
INSERT
5
6A
330
1A
100
AcDbEntity
67
0
8
Composant_de_conduite
62
0
440
33554687
6
ByLayer
370
-1
48
1.0
60
0
100
AcDbBlockReference
2
6
10
2506615.84001935
20
1138376.75501458
30
0.0
41
0.17638888888889
42
0.17638888888889
43
0.17638888888889
50
330.65520033
210
0.0
220
0.0
230
1.0
0
INSERT
5
6C
330
1A
100
AcDbEntity
67
0
8
Composant_de_conduite
62
0
440
33554687
6
ByLayer
370
-1
48
1.0
60
0
100
AcDbBlockReference
2
8
10
2506574.8029897
20
1138371.4399939
30
0.0
41
0.17638888888889
42
0.17638888888889
43
0.17638888888889
50
167.88063235
210
0.0
220
0.0
230
1.0
0
INSERT
5
72
330
1A
100
AcDbEntity
67
0
8
Composant_de_conduite
62
0
440
33554687
6
ByLayer
370
-1
48
1.0
60
0
100
AcDbBlockReference
2
8
10
2506575.16601459
20
1138371.53500509
30
0.0
41
0.17638888888889
42
0.17638888888889
43
0.17638888888889
50
214.25685242
210
0.0
220
0.0
230
1.0
0
INSERT
5
74
330
1A
100
AcDbEntity
67
0
8
Composant_de_conduite
62
0
440
33554687
6
ByLayer
370
-1
48
1.0
60
0
100
AcDbBlockReference
2
8
10
2506589.50199338
20
1138391.20497678
30
0.0
41
0.17638888888889
42
0.17638888888889
43
0.17638888888889
50
215.38808889
210
0.0
220
0.0
230
1.0
0
INSERT
5
76
330
1A
100
AcDbEntity
67
0
8
Composant_de_conduite
62
0
440
33554687
6
ByLayer
370
-1
48
1.0
60
0
100
AcDbBlockReference
2
8
10
2506589.79798982
20
1138391.29498213
30
0.0
41
0.17638888888889
42
0.17638888888889
43
0.17638888888889
50
177.30510451
210
0.0
220
0.0
230
1.0
0
INSERT
5
78
330
1A
100
AcDbEntity
67
0
8
Composant_de_conduite
62
0
440
33554687
6
ByLayer
370
-1
48
1.0
60
0
100
AcDbBlockReference
2
8
10
2506557.59600068
20
1138298.38699283
30
0.0
41
0.17638888888889
42
0.17638888888889
43
0.17638888888889
50
31.91450802
210
0.0
220
0.0
230
1.0
0
INSERT
5
7A
330
1A
100
AcDbEntity
67
0
8
Composant_de_conduite
62
0
440
33554687
6
ByLayer
370
-1
48
1.0
60
0
100
AcDbBlockReference
2
8
10
2506554.52100171
20
1138297.83499677
30
0.0
41
0.17638888888889
42
0.17638888888889
43
0.17638888888889
50
346.57231016
210
0.0
220
0.0
230
1.0
0
INSERT
5
7C
330
1A
100
AcDbEntity
67
0
8
Composant_de_conduite
62
0
440
33554687
6
ByLayer
370
-1
48
1.0
60
0
100
AcDbBlockReference
2
9
10
2506538.33300532
20
1138309.68501601
30
0.0
41
0.17638888888889
42
0.17638888888889
43
0.17638888888889
50
142.04974104
210
0.0
220
0.0
230
1.0
0
INSERT
5
82
330
1A
100
AcDbEntity
67
0
8
Composant_de_conduite
62
0
440
33554687
6
ByLayer
370
-1
48
1.0
60
0
100
AcDbBlockReference
2
8
10
2506589.00300937
20
1138352.11898062
30
0.0
41
0.17638888888889
42
0.17638888888889
43
0.17638888888889
50
278.99642746
210
0.0
220
0.0
230
1.0
0
INSERT
5
84
330
1A
100
AcDbEntity
67
0
8
Composant_de_conduite
62
0
440
33554687
6
ByLayer
370
-1
48
1.0
60
0
100
AcDbBlockReference
2
10
10
2506581.74100995
20
1138357.09500455
30
0.0
41
0.17638888888889
42
0.17638888888889
43
0.17638888888889
50
326.9255385
210
0.0
220
0.0
230
1.0
0
INSERT
5
8A
330
1A
100
AcDbEntity
67
0
8
Composant_de_conduite
62
0
440
33554687
6
ByLayer
370
-1
48
1.0
60
0
100
AcDbBlockReference
2
7
10
2506617.70455159
20
1138380.20895707
30
0.0
41
0.17638888888889
42
0.17638888888889
43
0.17638888888889
50
60.1533
210
0.0
220
0.0
230
1.0
0
INSERT
5
8C
330
1A
100
AcDbEntity
67
0
8
Composant_de_conduite
62
0
440
33554687
6
ByLayer
370
-1
48
1.0
60
0
100
AcDbBlockReference
2
8
10
2506618.02302433
20
1138380.68085938
30
0.0
41
0.17638888888889
42
0.17638888888889
43
0.17638888888889
50
48.2439
210
0.0
220
0.0
230
1.0
0
INSERT
5
8E
330
1A
100
AcDbEntity
67
0
8
Composant_de_conduite
62
0
440
33554687
6
ByLayer
370
-1
48
1.0
60
0
100
AcDbBlockReference
2
8
10
2506620.51504098
20
1138382.80940062
30
0.0
41
0.17638888888889
42
0.17638888888889
43
0.17638888888889
50
26.5034
210
0.0
220
0.0
230
1.0
0
LWPOLYLINE
5
90
330
1A
100
AcDbEntity
67
0
8
Conduites_(transports__distribution)
62
145
420
41000
440
33554687
6
11
370
-1
48
1.0
60
0
100
AcDbPolyline
90
3
70
0
38
0.0
39
0.0
10
2506516.46250814
20
1138281.64159405
40
0.05291666666667
41
0.05291666666667
42
0.0
10
2506537.92397659
20
1138309.16000153
40
0.05291666666667
41
0.05291666666667
42
0.0
10
2506538.33300532
20
1138309.68501601
40
0.05291666666667
41
0.05291666666667
42
0.0
210
0.0
220
0.0
230
1.0
0
LWPOLYLINE
5
92
330
1A
100
AcDbEntity
67
0
8
Conduites_(transports__distribution)
62
145
420
41000
440
33554687
6
11
370
-1
48
1.0
60
0
100
AcDbPolyline
90
2
70
0
38
0.0
39
0.0
10
2506615.06501228
20
1138377.18501785
40
0.05291666666667
41
0.05291666666667
42
0.0
10
2506614.35798478
20
1138377.55900557
40
0.05291666666667
41
0.05291666666667
42
0.0
210
0.0
220
0.0
230
1.0
0
LWPOLYLINE
5
93
330
1A
100
AcDbEntity
67
0
8
Conduites_(transports__distribution)
62
145
420
41000
440
33554687
6
11
370
-1
48
1.0
60
0
100
AcDbPolyline
90
9
70
0
38
0.0
39
0.0
10
2506614.35798478
20
1138377.55900557
40
0.05291666666667
41
0.05291666666667
42
0.0
10
2506613.39100302
20
1138378.07200599
40
0.05291666666667
41
0.05291666666667
42
0.0
10
2506589.95697589
20
1138391.23000608
40
0.05291666666667
41
0.05291666666667
42
0.0
10
2506589.79798982
20
1138391.29498213
40
0.05291666666667
41
0.05291666666667
42
0.0
10
2506589.50199338
20
1138391.20497678
40
0.05291666666667
41
0.05291666666667
42
0.0
10
2506575.16601459
20
1138371.53500509
40
0.05291666666667
41
0.05291666666667
42
0.0
10
2506574.8029897
20
1138371.4399939
40
0.05291666666667
41
0.05291666666667
42
0.0
10
2506569.25499634
20
1138375.90702209
40
0.05291666666667
41
0.05291666666667
42
0.0
10
2506544.77724765
20
1138394.67178433
40
0.05291666666667
41
0.05291666666667
42
0.0
210
0.0
220
0.0
230
1.0
0
LWPOLYLINE
5
94
330
1A
100
AcDbEntity
67
0
8
Conduites_(transports__distribution)
62
145
420
41000
440
33554687
6
11
370
-1
48
1.0
60
0
100
AcDbPolyline
90
7
70
0
38
0.0
39
0.0
10
2506538.33300532
20
1138309.68501601
40
0.05291666666667
41
0.05291666666667
42
0.0
10
2506538.95197976
20
1138309.22898227
40
0.05291666666667
41
0.05291666666667
42
0.0
10
2506554.52100171
20
1138297.83499677
40
0.05291666666667
41
0.05291666666667
42
0.0
10
2506557.59600068
20
1138298.38699283
40
0.05291666666667
41
0.05291666666667
42
0.0
10
2506569.75698387
20
1138314.91298481
40
0.05291666666667
41
0.05291666666667
42
0.0
10
2506585.00197657
20
1138335.46498883
40
0.05291666666667
41
0.05291666666667
42
0.0
10
2506594.04400935
20
1138347.3769806
40
0.05291666666667
41
0.05291666666667
42
0.0
210
0.0
220
0.0
230
1.0
0
LWPOLYLINE
5
95
330
1A
100
AcDbEntity
67
0
8
Conduites_(transports__distribution)
62
145
420
41000
440
33554687
6
11
370
-1
48
1.0
60
0
100
AcDbPolyline
90
5
70
0
38
0.0
39
0.0
10
2506594.04400935
20
1138347.3769806
40
0.05291666666667
41
0.05291666666667
42
0.0
10
2506596.98299913
20
1138351.29201274
40
0.05291666666667
41
0.05291666666667
42
0.0
10
2506608.89799442
20
1138367.32698003
40
0.05291666666667
41
0.05291666666667
42
0.0
10
2506614.53399077
20
1138376.15200882
40
0.05291666666667
41
0.05291666666667
42
0.0
10
2506615.06501228
20
1138377.18501785
40
0.05291666666667
41
0.05291666666667
42
0.0
210
0.0
220
0.0
230
1.0
0
LWPOLYLINE
5
96
330
1A
100
AcDbEntity
67
0
8
Conduites_(transports__distribution)
62
145
420
41000
440
33554687
6
11
370
-1
48
1.0
60
0
100
AcDbPolyline
90
6
70
0
38
0.0
39
0.0
10
2506538.33300532
20
1138309.68501601
40
0.05291666666667
41
0.05291666666667
42
0.0
10
2506537.76499052
20
1138310.10300522
40
0.05291666666667
41
0.05291666666667
42
0.0
10
2506535.45598806
20
1138311.65101701
40
0.05291666666667
41
0.05291666666667
42
0.0
10
2506528.40698793
20
1138318.20198425
40
0.05291666666667
41
0.05291666666667
42
0.0
10
2506520.19202315
20
1138325.6200163
40
0.05291666666667
41
0.05291666666667
42
0.0
10
2506516.46250814
20
1138328.7610926
40
0.05291666666667
41
0.05291666666667
42
0.0
210
0.0
220
0.0
230
1.0
0
LWPOLYLINE
5
97
330
1A
100
AcDbEntity
67
0
8
Conduites_(transports__distribution)
62
145
420
41000
440
33554687
6
11
370
-1
48
1.0
60
0
100
AcDbPolyline
90
2
70
0
38
0.0
39
0.0
10
2506615.84001935
20
1138376.75501458
40
0.05291666666667
41
0.05291666666667
42
0.0
10
2506615.06501228
20
1138377.18501785
40
0.05291666666667
41
0.05291666666667
42
0.0
210
0.0
220
0.0
230
1.0
0
LWPOLYLINE
5
98
330
1A
100
AcDbEntity
67
0
8
Conduites_(transports__distribution)
62
145
420
41000
440
33554687
6
11
370
-1
48
1.0
60
0
100
AcDbPolyline
90
3
70
0
38
0.0
39
0.0
10
2506625.9625167
20
1138371.68257781
40
0.05291666666667
41
0.05291666666667
42
0.0
10
2506616.37599665
20
1138376.48599973
40
0.05291666666667
41
0.05291666666667
42
0.0
10
2506615.84001935
20
1138376.75501458
40
0.05291666666667
41
0.05291666666667
42
0.0
210
0.0
220
0.0
230
1.0
0
LWPOLYLINE
5
99
330
1A
100
AcDbEntity
67
0
8
Conduites_(transports__distribution)
62
145
420
41000
440
33554687
6
11
370
-1
48
1.0
60
0
100
AcDbPolyline
90
2
70
0
38
0.0
39
0.0
10
2506622.13563772
20
1138383.16882128
40
0.05291666666667
41
0.05291666666667
42
0.0
10
2506625.9625167
20
1138384.0714277
40
0.05291666666667
41
0.05291666666667
42
0.0
210
0.0
220
0.0
230
1.0
0
LWPOLYLINE
5
9A
330
1A
100
AcDbEntity
67
0
8
Conduites_(transports__distribution)
62
145
420
41000
440
33554687
6
11
370
-1
48
1.0
60
0
100
AcDbPolyline
90
3
70
0
38
0.0
39
0.0
10
2506617.53199964
20
1138379.85008705
40
0.05291666666667
41
0.05291666666667
42
0.0
10
2506616.41098761
20
1138377.77100369
40
0.05291666666667
41
0.05291666666667
42
0.0
10
2506615.84001935
20
1138376.75501458
40
0.05291666666667
41
0.05291666666667
42
0.0
210
0.0
220
0.0
230
1.0
0
LWPOLYLINE
5
9B
330
1A
100
AcDbEntity
67
0
8
Conduites_(transports__distribution)
62
145
420
41000
440
33554687
6
11
370
-1
48
1.0
60
0
100
AcDbPolyline
90
2
70
0
38
0.0
39
0.0
10
2506617.53199964
20
1138379.85008705
40
0.05291666666667
41
0.05291666666667
42
0.0
10
2506617.70455159
20
1138380.20895707
40
0.05291666666667
41
0.05291666666667
42
0.0
210
0.0
220
0.0
230
1.0
0
LWPOLYLINE
5
9C
330
1A
100
AcDbEntity
67
0
8
Conduites_(transports__distribution)
62
145
420
41000
440
33554687
6
11
370
-1
48
1.0
60
0
100
AcDbPolyline
90
6
70
0
38
0.0
39
0.0
10
2506617.70455159
20
1138380.20895707
40
0.05291666666667
41
0.05291666666667
42
0.0
10
2506618.02302433
20
1138380.68085938
40
0.05291666666667
41
0.05291666666667
42
0.0
10
2506618.78912097
20
1138381.33522525
40
0.05291666666667
41
0.05291666666667
42
0.0
10
2506620.51504098
20
1138382.80940062
40
0.05291666666667
41
0.05291666666667
42
0.0
10
2506621.12034943
20
1138382.94365776
40
0.05291666666667
41
0.05291666666667
42
0.0
10
2506622.13563772
20
1138383.16882128
40
0.05291666666667
41
0.05291666666667
42
0.0
210
0.0
220
0.0
230
1.0
0
LWPOLYLINE
5
9E
330
1A
100
AcDbEntity
67
0
8
Conduites_(branchements__privé)
62
145
420
41000
440
33554687
6
12
370
-1
48
1.0
60
0
100
AcDbPolyline
90
4
70
0
38
0.0
39
0.0
10
2506581.70301548
20
1138358.06498982
40
0.01763888888889
41
0.01763888888889
42
0.0
10
2506585.73598566
20
1138355.11598831
40
0.01763888888889
41
0.01763888888889
42
0.0
10
2506588.48900779
20
1138353.10398347
40
0.01763888888889
41
0.01763888888889
42
0.0
10
2506594.04400935
20
1138347.3769806
40
0.01763888888889
41
0.01763888888889
42
0.0
210
0.0
220
0.0
230
1.0
0
LWPOLYLINE
5
A0
330
1A
100
AcDbEntity
67
0
8
Conduites_(branchements__privé)
62
145
420
41000
440
33554687
6
13
370
-1
48
1.0
60
0
100
AcDbPolyline
90
3
70
0
38
0.0
39
0.0
10
2506581.48100564
20
1138357.74201181
40
0.01763888888889
41
0.01763888888889
42
0.0
10
2506581.26099814
20
1138357.44000834
40
0.01763888888889
41
0.01763888888889
42
0.0
10
2506581.74100995
20
1138357.09500455
40
0.01763888888889
41
0.01763888888889
42
0.0
210
0.0
220
0.0
230
1.0
0
LWPOLYLINE
5
A2
330
1A
100
AcDbEntity
67
0
8
Conduites_(branchements__privé)
62
145
420
41000
440
33554687
6
12
370
-1
48
1.0
60
0
100
AcDbPolyline
90
2
70
0
38
0.0
39
0.0
10
2506581.48100564
20
1138357.74201181
40
0.01763888888889
41
0.01763888888889
42
0.0
10
2506581.70301548
20
1138358.06498982
40
0.01763888888889
41
0.01763888888889
42
0.0
210
0.0
220
0.0
230
1.0
0
LWPOLYLINE
5
A3
330
1A
100
AcDbEntity
67
0
8
Conduites_(branchements__privé)
62
145
420
41000
440
33554687
6
13
370
-1
48
1.0
60
0
100
AcDbPolyline
90
4
70
0
38
0.0
39
0.0
10
2506581.74100995
20
1138357.09500455
40
0.01763888888889
41
0.01763888888889
42
0.0
10
2506586.25399193
20
1138354.11601795
40
0.01763888888889
41
0.01763888888889
42
0.0
10
2506589.00300937
20
1138352.11898062
40
0.01763888888889
41
0.01763888888889
42
0.0
10
2506586.22686017
20
1138348.29875945
40
0.01763888888889
41
0.01763888888889
42
0.0
210
0.0
220
0.0
230
1.0
0
INSERT
5
A6
330
1A
100
AcDbEntity
67
0
8
Autres_points
62
0
440
33554687
6
ByLayer
370
-1
48
1.0
60
0
100
AcDbBlockReference
2
14
10
2506581.48100564
20
1138357.74201181
30
0.0
41
0.17638888888889
42
0.17638888888889
43
0.17638888888889
50
232.81656586
210
0.0
220
0.0
230
1.0
0
LWPOLYLINE
5
AC
330
1A
100
AcDbEntity
67
0
8
_admin.adm_ext_geo_commandes_asitvd
62
1
420
16711680
440
33554687
6
Continuous
370
-1
48
1.0
60
0
100
AcDbPolyline
90
5
70
1
38
0.0
39
0.0
10
2506516.4625
20
1138394.6718
40
0.07055555555556
41
0.07055555555556
42
0.0
10
2506625.9625
20
1138394.6718
40
0.07055555555556
41
0.07055555555556
42
0.0
10
2506625.9625
20
1138257.9218
40
0.07055555555556
41
0.07055555555556
42
0.0
10
2506516.4625
20
1138257.9218
40
0.07055555555556
41
0.07055555555556
42
0.0
10
2506516.4625
20
1138394.6718
40
0.07055555555556
41
0.07055555555556
42
0.0
210
0.0
220
0.0
230
1.0
0
VIEWPORT
5
B1
330
AD
100
AcDbEntity
67
1
8
0
62
256
6
ByLayer
370
-1
48
1.0
60
0
100
AcDbViewport
10
0.0
20
0.0
30
0.0
40
297.0
41
210.0
68
1
69
1
12
50.0
22
100.0
13
0.0
23
0.0
14
10.0
24
10.0
15
10.0
25
10.0
16
0.0
26
0.0
36
1.0
17
0.0
27
0.0
37
0.0
42
50.0
43
0.0
44
0.0
45
250.0
50
0.0
51
0.0
72
1000
90
819232
110
0.0
120
0.0
130
0.0
111
1.0
121
0.0
131
0.0
112
0.0
122
1.0
132
0.0
0
ENDSEC
0
SECTION
2
OBJECTS
0
DICTIONARY
5
B6
330
0
100
AcDbDictionary
280
0
281
1
3
ACAD_GROUP
350
B7
3
ACAD_LAYOUT
350
B8
3
ACAD_MLINESTYLE
350
BC
0
DICTIONARY
5
B7
330
B6
100
AcDbDictionary
280
0
281
1
0
DICTIONARY
5
B8
330
B6
100
AcDbDictionary
280
0
281
1
3
Model
350
1E
3
Layout1
350
B2
0
DICTIONARY
5
BC
330
B6
100
AcDbDictionary
280
0
281
1
3
Standard
350
19
0
LAYOUT
5
1E
330
B8
100
AcDbPlotSettings
1

2
none_device
4
ISO_A4_(210.00_x_297.00_MM)
6

40
7.5
41
20.0
42
7.5
43
20.0
44
210.0
45
297.0
46
0.0
47
0.0
48
0.0
49
0.0
140
0.0
141
0.0
142
1.0
143
1.0
70
11952
72
1
73
1
74
5
7

75
16
147
1.0
148
0.0
149
0.0
100
AcDbLayout
1
Model
70
1
71
0
10
-20.0
20
-7.5
11
277.0
21
202.5
12
0.0
22
0.0
32
0.0
14
25.7
24
19.5
34
0.0
15
231.3
25
175.5
35
0.0
146
0.0
13
0.0
23
0.0
33
0.0
16
1.0
26
0.0
36
0.0
17
0.0
27
1.0
37
0.0
76
0
330
1A
0
LAYOUT
5
B2
330
B8
100
AcDbPlotSettings
1

2
none_device
4
ISO_A4_(210.00_x_297.00_MM)
6

40
7.5
41
20.0
42
7.5
43
20.0
44
210.0
45
297.0
46
0.0
47
0.0
48
0.0
49
0.0
140
0.0
141
0.0
142
1.0
143
1.0
70
688
72
1
73
1
74
5
7

75
16
147
1.0
148
0.0
149
0.0
100
AcDbLayout
1
Layout1
70
1
71
1
10
-20.0
20
-7.5
11
277.0
21
202.5
12
0.0
22
0.0
32
0.0
14
25.7
24
19.5
34
0.0
15
231.3
25
175.5
35
0.0
146
0.0
13
0.0
23
0.0
33
0.0
16
1.0
26
0.0
36
0.0
17
0.0
27
1.0
37
0.0
76
0
330
AD
0
MLINESTYLE
5
19
330
BC
100
AcDbMlineStyle
2
Standard
70
0
3

62
256
51
90.0
52
90.0
71
2
49
-0.5
62
256
6
ByLayer
49
0.5
62
256
6
ByLayer
0
ENDSEC
0
EOF
