999
Dxf file generated by netDxf https://netdxf.codeplex.com, Copyright(C) 2009-2016 Daniel Carvajal, Licensed under LGPL
0
SECTION
2
HEADER
9
$ACADVER
1
AC1024
9
$DWGCODEPAGE
3
ANSI_1252
9
$LASTSAVEDBY
1
VertiGIS DXF export for ArcMap Ver. 1.2.1.1 / 25.08.2021 05:00
9
$HANDSEED
5
E0
9
$ANGBASE
50
0.0
9
$ANGDIR
70
0
9
$ATTMODE
70
1
9
$AUNITS
70
0
9
$AUPREC
70
0
9
$CECOLOR
62
256
9
$CELTSCALE
40
1.0
9
$CELTYPE
6
ByLayer
9
$CELWEIGHT
370
-1
9
$CLAYER
8
0
9
$CMLJUST
70
0
9
$CMLSCALE
40
20.0
9
$CMLSTYLE
2
Standard
9
$DIMSTYLE
2
Standard
9
$TEXTSIZE
40
2.5
9
$TEXTSTYLE
7
Standard
9
$LUNITS
70
2
9
$LUPREC
70
4
9
$EXTNAMES
290
1
9
$INSBASE
10
0.0
20
0.0
30
0.0
9
$INSUNITS
70
0
9
$LTSCALE
40
1.0
9
$LWDISPLAY
290
0
9
$PDMODE
70
0
9
$PDSIZE
40
0.0
9
$PLINEGEN
70
0
9
$PSLTSCALE
70
1
9
$TDCREATE
40
2460403.67895206
9
$TDUCREATE
40
2460403.59561873
9
$TDUPDATE
40
2460403.67895206
9
$TDUUPDATE
40
2460403.59561873
9
$TDINDWG
40
0.0
9
$DIMADEC
70
0
9
$DIMAUNIT
70
0
9
$DIMASZ
40
0.18
9
$DIMAZIN
70
0
9
$DIMSAH
70
0
9
$DIMBLK
1

9
$DIMLDRBLK
1

9
$DIMCEN
40
0.09
9
$DIMCLRD
70
0
9
$DIMCLRE
70
0
9
$DIMCLRT
70
0
9
$DIMDEC
70
2
9
$DIMDLE
40
0.0
9
$DIMDLI
40
0.38
9
$DIMDSEP
70
46
9
$DIMEXE
40
0.18
9
$DIMEXO
40
0.0625
9
$DIMGAP
40
0.09
9
$DIMJUST
70
0
9
$DIMLFAC
40
1.0
9
$DIMLUNIT
70
2
9
$DIMLWD
70
-2
9
$DIMLWE
70
-2
9
$DIMPOST
1
<>
9
$DIMRND
40
0.0
9
$DIMSCALE
40
1.0
9
$DIMSD1
70
0
9
$DIMSD2
70
0
9
$DIMSE1
70
0
9
$DIMSE2
70
0
9
$DIMTAD
70
1
9
$DIMTIH
70
0
9
$DIMTOH
70
0
9
$DIMTXT
40
0.18
9
$DIMZIN
70
0
9
$DIMFRAC
70
0
9
$DIMLTYPE
6
ByBlock
9
$DIMLTEX1
6
ByBlock
9
$DIMLTEX2
6
ByBlock
0
ENDSEC
0
SECTION
2
CLASSES
0
CLASS
1
RASTERVARIABLES
2
AcDbRasterVariables
3
ISM
90
0
91
1
280
0
281
0
0
ENDSEC
0
SECTION
2
TABLES
0
TABLE
2
APPID
5
4
330
0
100
AcDbSymbolTable
70
4
0
APPID
5
17
330
4
100
AcDbSymbolTableRecord
100
AcDbRegAppTableRecord
2
ACAD
70
0
0
APPID
5
D5
330
4
100
AcDbSymbolTableRecord
100
AcDbRegAppTableRecord
2
AcCmTransparency
70
0
0
APPID
5
D6
330
4
100
AcDbSymbolTableRecord
100
AcDbRegAppTableRecord
2
GradientColor1ACI
70
0
0
APPID
5
D7
330
4
100
AcDbSymbolTableRecord
100
AcDbRegAppTableRecord
2
GradientColor2ACI
70
0
0
ENDTAB
0
TABLE
2
VPORT
5
1
330
0
100
AcDbSymbolTable
70
1
0
VPORT
5
2
330
1
100
AcDbSymbolTableRecord
100
AcDbViewportTableRecord
2
*Active
70
0
10
0.0
20
0.0
11
1.0
21
1.0
12
0.0
22
0.0
13
0.0
23
0.0
14
0.5
24
0.5
15
10.0
25
10.0
16
0.0
26
0.0
36
1.0
17
0.0
27
0.0
37
0.0
40
10.0
41
1.0
75
0
76
1
0
ENDTAB
0
TABLE
2
LTYPE
5
6
330
0
100
AcDbSymbolTable
70
5
0
LTYPE
5
13
330
6
100
AcDbSymbolTableRecord
100
AcDbLinetypeTableRecord
70
0
2
Continuous
3
Solid line
72
65
73
0
40
0.0
0
LTYPE
5
14
330
6
100
AcDbSymbolTableRecord
100
AcDbLinetypeTableRecord
70
0
2
ByLayer
3

72
65
73
0
40
0.0
0
LTYPE
5
15
330
6
100
AcDbSymbolTableRecord
100
AcDbLinetypeTableRecord
70
0
2
ByBlock
3

72
65
73
0
40
0.0
0
LTYPE
5
5D
330
6
100
AcDbSymbolTableRecord
100
AcDbLinetypeTableRecord
70
0
2
4
3

72
65
73
4
40
0.64205555555556
49
0.34572222222222
74
0
49
-0.09877777777778
74
0
49
0.09877777777778
74
0
49
-0.09877777777778
74
0
0
LTYPE
5
C9
330
6
100
AcDbSymbolTableRecord
100
AcDbLinetypeTableRecord
70
0
2
12
3

72
65
73
4
40
0.64205555555556
49
0.34572222222222
74
0
49
-0.09877777777778
74
0
49
0.09877777777778
74
0
49
-0.09877777777778
74
0
0
ENDTAB
0
TABLE
2
LAYER
5
5
330
0
100
AcDbSymbolTable
70
12
0
LAYER
5
12
330
5
100
AcDbSymbolTableRecord
100
AcDbLayerTableRecord
2
0
70
0
62
7
6
Continuous
290
1
370
-3
390
0
0
LAYER
5
20
330
5
100
AcDbSymbolTableRecord
100
AcDbLayerTableRecord
2
Numéro___Hydrant_(L)
70
0
62
7
6
Continuous
290
1
370
-3
390
0
0
LAYER
5
24
330
5
100
AcDbSymbolTableRecord
100
AcDbLayerTableRecord
2
Matériau_Diamètre___Conduite_(L)
70
0
62
7
6
Continuous
290
1
370
-3
390
0
0
LAYER
5
33
330
5
100
AcDbSymbolTableRecord
100
AcDbLayerTableRecord
2
Armature_(Vannes_à_volant)
70
0
62
7
6
Continuous
290
1
370
-3
390
0
0
LAYER
5
41
330
5
100
AcDbSymbolTableRecord
100
AcDbLayerTableRecord
2
Armature_(Vannes_incorporées)
70
0
62
7
6
Continuous
290
1
370
-3
390
0
0
LAYER
5
49
330
5
100
AcDbSymbolTableRecord
100
AcDbLayerTableRecord
2
Armature_(Vannes_normales)
70
0
62
7
6
Continuous
290
1
370
-3
390
0
0
LAYER
5
5B
330
5
100
AcDbSymbolTableRecord
100
AcDbLayerTableRecord
2
Conduites_(transports__distribution)
70
0
62
7
6
Continuous
290
1
370
-3
390
0
0
LAYER
5
6D
330
5
100
AcDbSymbolTableRecord
100
AcDbLayerTableRecord
2
Branchement_d'immeuble
70
0
62
7
6
Continuous
290
1
370
-3
390
0
0
LAYER
5
7C
330
5
100
AcDbSymbolTableRecord
100
AcDbLayerTableRecord
2
BH__arrosage__sprinkler
70
0
62
7
6
Continuous
290
1
370
-3
390
0
0
LAYER
5
86
330
5
100
AcDbSymbolTableRecord
100
AcDbLayerTableRecord
2
Composant_de_conduite
70
0
62
7
6
Continuous
290
1
370
-3
390
0
0
LAYER
5
C7
330
5
100
AcDbSymbolTableRecord
100
AcDbLayerTableRecord
2
Conduites_(branchements__arrosage)
70
0
62
7
6
Continuous
290
1
370
-3
390
0
0
LAYER
5
CD
330
5
100
AcDbSymbolTableRecord
100
AcDbLayerTableRecord
2
_admin.adm_ext_geo_commandes_asitvd
70
0
62
7
6
Continuous
290
1
370
-3
390
0
0
ENDTAB
0
TABLE
2
STYLE
5
7
330
0
100
AcDbSymbolTable
70
4
0
STYLE
5
16
330
7
100
AcDbSymbolTableRecord
100
AcDbTextStyleTableRecord
2
Standard
3
simplex.shx
70
0
71
0
40
0.0
41
1.0
42
0.0
50
0.0
0
STYLE
5
22
330
7
100
AcDbSymbolTableRecord
100
AcDbTextStyleTableRecord
2
TS[Numéro___Hydrant_(L)[Arial_10_Regular__CW100_]]
3
C:\WINDOWS\FONTS\ARIAL.TTF
70
0
71
0
40
1.28763888888889
41
1.0
42
1.28763888888889
50
0.0
1001
ACAD
1000
Arial
1071
0
0
STYLE
5
26
330
7
100
AcDbSymbolTableRecord
100
AcDbTextStyleTableRecord
2
TS[Matériau_Diamètre___Conduite_(L)[Arial_5_Regular__CW100_]]
3
C:\WINDOWS\FONTS\ARIAL.TTF
70
0
71
0
40
0.64381944444444
41
1.0
42
0.64381944444444
50
0.0
1001
ACAD
1000
Arial
1071
0
0
STYLE
5
2C
330
7
100
AcDbSymbolTableRecord
100
AcDbTextStyleTableRecord
2
TS[Matériau_Diamètre___Conduite_(L)[Arial_3_Regular__CW100_]]
3
C:\WINDOWS\FONTS\ARIAL.TTF
70
0
71
0
40
0.38629166666667
41
1.0
42
0.38629166666667
50
0.0
1001
ACAD
1000
Arial
1071
0
0
ENDTAB
0
TABLE
2
DIMSTYLE
5
8
330
0
100
AcDbSymbolTable
70
1
100
AcDbDimStyleTable
0
DIMSTYLE
105
18
330
8
100
AcDbSymbolTableRecord
100
AcDbDimStyleTableRecord
2
Standard
70
0
3
<>
40
1.0
41
0.18
42
0.0625
43
0.38
44
0.18
45
0.0
46
0.0
73
0
74
0
75
0
76
0
77
1
78
0
79
0
140
0.18
141
0.09
144
1.0
147
0.09
176
0
177
0
178
0
179
0
271
2
275
0
276
0
277
2
278
46
280
0
281
0
282
0
340
16
173
0
345
15
346
15
347
15
371
-2
372
-2
0
ENDTAB
0
TABLE
2
VIEW
5
3
330
0
100
AcDbSymbolTable
70
0
0
ENDTAB
0
TABLE
2
UCS
5
A
330
0
100
AcDbSymbolTable
70
0
0
ENDTAB
0
TABLE
2
BLOCK_RECORD
5
B
330
0
100
AcDbSymbolTable
70
12
0
BLOCK_RECORD
5
1A
330
B
100
AcDbSymbolTableRecord
100
AcDbBlockTableRecord
2
*Model_Space
340
1E
0
BLOCK_RECORD
5
36
330
B
100
AcDbSymbolTableRecord
100
AcDbBlockTableRecord
2
1
340
0
70
0
280
1
281
0
1001
ACAD
1000
DesignCenter Data
1002
{
1070
1
1070
0
1002
}
0
BLOCK_RECORD
5
44
330
B
100
AcDbSymbolTableRecord
100
AcDbBlockTableRecord
2
2
340
0
70
0
280
1
281
0
1001
ACAD
1000
DesignCenter Data
1002
{
1070
1
1070
0
1002
}
0
BLOCK_RECORD
5
4C
330
B
100
AcDbSymbolTableRecord
100
AcDbBlockTableRecord
2
3
340
0
70
0
280
1
281
0
1001
ACAD
1000
DesignCenter Data
1002
{
1070
1
1070
0
1002
}
0
BLOCK_RECORD
5
70
330
B
100
AcDbSymbolTableRecord
100
AcDbBlockTableRecord
2
5
340
0
70
0
280
1
281
0
1001
ACAD
1000
DesignCenter Data
1002
{
1070
1
1070
0
1002
}
0
BLOCK_RECORD
5
7F
330
B
100
AcDbSymbolTableRecord
100
AcDbBlockTableRecord
2
6
340
0
70
0
280
1
281
0
1001
ACAD
1000
DesignCenter Data
1002
{
1070
1
1070
0
1002
}
0
BLOCK_RECORD
5
89
330
B
100
AcDbSymbolTableRecord
100
AcDbBlockTableRecord
2
7
340
0
70
0
280
1
281
0
1001
ACAD
1000
DesignCenter Data
1002
{
1070
1
1070
0
1002
}
0
BLOCK_RECORD
5
8F
330
B
100
AcDbSymbolTableRecord
100
AcDbBlockTableRecord
2
8
340
0
70
0
280
1
281
0
1001
ACAD
1000
DesignCenter Data
1002
{
1070
1
1070
0
1002
}
0
BLOCK_RECORD
5
95
330
B
100
AcDbSymbolTableRecord
100
AcDbBlockTableRecord
2
9
340
0
70
0
280
1
281
0
1001
ACAD
1000
DesignCenter Data
1002
{
1070
1
1070
0
1002
}
0
BLOCK_RECORD
5
9D
330
B
100
AcDbSymbolTableRecord
100
AcDbBlockTableRecord
2
10
340
0
70
0
280
1
281
0
1001
ACAD
1000
DesignCenter Data
1002
{
1070
1
1070
0
1002
}
0
BLOCK_RECORD
5
B9
330
B
100
AcDbSymbolTableRecord
100
AcDbBlockTableRecord
2
11
340
0
70
0
280
1
281
0
1001
ACAD
1000
DesignCenter Data
1002
{
1070
1
1070
0
1002
}
0
BLOCK_RECORD
5
CF
330
B
100
AcDbSymbolTableRecord
100
AcDbBlockTableRecord
2
*Paper_Space
340
D4
0
ENDTAB
0
ENDSEC
0
SECTION
2
BLOCKS
0
BLOCK
5
1C
330
1A
100
AcDbEntity
8
0
100
AcDbBlockBegin
2
*Model_Space
70
0
10
0.0
20
0.0
30
0.0
3
*Model_Space
0
ENDBLK
5
1B
330
1A
100
AcDbEntity
8
0
100
AcDbBlockEnd
0
BLOCK
5
38
330
36
100
AcDbEntity
8
Armature_(Vannes_à_volant)
100
AcDbBlockBegin
2
1
70
0
10
0.0
20
0.0
30
0.0
3
1
0
HATCH
5
39
330
36
100
AcDbEntity
8
0
62
7
420
16777215
6
ByLayer
370
-1
48
1.0
60
0
100
AcDbHatch
10
0.0
20
0.0
30
0.0
210
0.0
220
0.0
230
1.0
2
SOLID
70
1
71
0
91
1
92
5
93
4
72
4
94
2
73
1
74
0
95
9
96
6
40
0.0
40
0.0
40
0.0
40
1.0
40
2.0
40
3.0
40
4.0
40
4.0
40
4.0
10
1.91
20
0.0
42
1.0
10
1.91
20
-0.39
42
1.0
10
1.61
20
-1.09
42
1.0
10
1.09
20
-1.61
42
1.0
10
0.39
20
-1.91
42
1.0
10
0.0
20
-1.91
42
1.0
97
0
72
4
94
2
73
1
74
0
95
9
96
6
40
0.0
40
0.0
40
0.0
40
1.0
40
2.0
40
3.0
40
4.0
40
4.0
40
4.0
10
0.0
20
-1.91
42
1.0
10
-0.39
20
-1.91
42
1.0
10
-1.09
20
-1.61
42
1.0
10
-1.61
20
-1.09
42
1.0
10
-1.91
20
-0.39
42
1.0
10
-1.91
20
0.0
42
1.0
97
0
72
4
94
2
73
1
74
0
95
9
96
6
40
0.0
40
0.0
40
0.0
40
1.0
40
2.0
40
3.0
40
4.0
40
4.0
40
4.0
10
-1.91
20
0.0
42
1.0
10
-1.91
20
0.39
42
1.0
10
-1.61
20
1.09
42
1.0
10
-1.09
20
1.61
42
1.0
10
-0.39
20
1.91
42
1.0
10
0.0
20
1.91
42
1.0
97
0
72
4
94
2
73
1
74
0
95
9
96
6
40
0.0
40
0.0
40
0.0
40
1.0
40
2.0
40
3.0
40
4.0
40
4.0
40
4.0
10
0.0
20
1.91
42
1.0
10
0.39
20
1.91
42
1.0
10
1.09
20
1.61
42
1.0
10
1.61
20
1.09
42
1.0
10
1.91
20
0.39
42
1.0
10
1.91
20
0.0
42
1.0
97
0
97
0
75
0
76
1
47
0.0
98
1
10
0.0
20
0.0
1001
ACAD
1010
0.0
1020
0.0
1030
0.0
0
HATCH
5
3A
330
36
100
AcDbEntity
8
0
62
175
420
18687
6
ByLayer
370
-1
48
1.0
60
0
100
AcDbHatch
10
0.0
20
0.0
30
0.0
210
0.0
220
0.0
230
1.0
2
SOLID
70
1
71
0
91
3
92
5
93
11
72
4
94
2
73
1
74
0
95
6
96
3
40
0.0
40
0.0
40
0.0
40
1.0
40
1.0
40
1.0
10
0.86
20
2.9
42
1.0
10
0.86
20
2.55
42
1.0
10
0.61
20
2.3
42
1.0
97
0
72
4
94
2
73
1
74
0
95
6
96
3
40
0.0
40
0.0
40
0.0
40
1.0
40
1.0
40
1.0
10
0.61
20
2.3
42
1.0
10
0.39
20
2.08
42
1.0
10
0.09
20
2.05
42
1.0
97
0
72
4
94
2
73
1
74
0
95
6
96
3
40
0.0
40
0.0
40
0.0
40
1.0
40
1.0
40
1.0
10
0.09
20
2.05
42
1.0
10
0.44
20
2.02
42
1.0
10
0.74
20
1.9
42
1.0
97
0
72
4
94
2
73
1
74
0
95
12
96
9
40
0.0
40
0.0
40
0.0
40
1.0
40
2.0
40
3.0
40
4.0
40
5.0
40
6.0
40
7.0
40
7.0
40
7.0
10
0.74
20
1.9
42
1.0
10
1.09
20
1.75
42
1.0
10
1.61
20
1.23
42
1.0
10
1.91
20
0.53
42
1.0
10
1.91
20
-0.25
42
1.0
10
1.61
20
-0.95
42
1.0
10
1.09
20
-1.47
42
1.0
10
0.4
20
-1.77
42
1.0
10
0.0
20
-1.77
42
1.0
97
0
72
4
94
2
73
1
74
0
95
9
96
6
40
0.0
40
0.0
40
0.0
40
1.0
40
2.0
40
3.0
40
4.0
40
4.0
40
4.0
10
0.0
20
-1.77
42
1.0
10
-0.39
20
-1.77
42
1.0
10
-1.09
20
-1.47
42
1.0
10
-1.6
20
-0.95
42
1.0
10
-1.9
20
-0.25
42
1.0
10
-1.9
20
0.14
42
1.0
97
0
72
4
94
2
73
1
74
0
95
8
96
5
40
0.0
40
0.0
40
0.0
40
1.0
40
2.0
40
3.0
40
3.0
40
3.0
10
-1.9
20
0.14
42
1.0
10
-1.9
20
0.53
42
1.0
10
-1.6
20
1.23
42
1.0
10
-1.09
20
1.75
42
1.0
10
-0.74
20
1.9
42
1.0
97
0
72
4
94
2
73
1
74
0
95
6
96
3
40
0.0
40
0.0
40
0.0
40
1.0
40
1.0
40
1.0
10
-0.74
20
1.9
42
1.0
10
-0.43
20
2.02
42
1.0
10
-0.09
20
2.05
42
1.0
97
0
72
4
94
2
73
1
74
0
95
6
96
3
40
0.0
40
0.0
40
0.0
40
1.0
40
1.0
40
1.0
10
-0.09
20
2.05
42
1.0
10
-0.39
20
2.08
42
1.0
10
-0.6
20
2.3
42
1.0
97
0
72
4
94
2
73
1
74
0
95
6
96
3
40
0.0
40
0.0
40
0.0
40
1.0
40
1.0
40
1.0
10
-0.6
20
2.3
42
1.0
10
-0.85
20
2.55
42
1.0
10
-0.85
20
2.9
42
1.0
97
0
72
4
94
2
73
1
74
0
95
7
96
4
40
0.0
40
0.0
40
0.0
40
1.0
40
2.0
40
2.0
40
2.0
10
-0.85
20
2.9
42
1.0
10
-0.85
20
3.26
42
1.0
10
-0.35
20
3.76
42
1.0
10
0.0
20
3.76
42
1.0
97
0
72
4
94
2
73
1
74
0
95
7
96
4
40
0.0
40
0.0
40
0.0
40
1.0
40
2.0
40
2.0
40
2.0
10
0.0
20
3.76
42
1.0
10
0.36
20
3.76
42
1.0
10
0.86
20
3.26
42
1.0
10
0.86
20
2.9
42
1.0
97
0
97
0
92
5
93
6
72
4
94
2
73
1
74
0
95
8
96
5
40
0.0
40
0.0
40
0.0
40
1.0
40
2.0
40
3.0
40
3.0
40
3.0
10
-0.62
20
1.6
42
1.0
10
-0.91
20
1.48
42
1.0
10
-1.34
20
1.05
42
1.0
10
-1.59
20
0.47
42
1.0
10
-1.59
20
0.14
42
1.0
97
0
72
4
94
2
73
1
74
0
95
8
96
5
40
0.0
40
0.0
40
0.0
40
1.0
40
2.0
40
3.0
40
3.0
40
3.0
10
-1.59
20
0.14
42
1.0
10
-1.59
20
-0.19
42
1.0
10
-1.34
20
-0.77
42
1.0
10
-0.91
20
-1.2
42
1.0
10
-0.62
20
-1.33
42
1.0
97
0
72
4
94
2
73
1
74
0
95
6
96
3
40
0.0
40
0.0
40
0.0
40
1.0
40
1.0
40
1.0
10
-0.62
20
-1.33
42
1.0
10
-0.4
20
-1.42
42
1.0
10
-0.15
20
-1.45
42
1.0
97
0
72
1
10
-0.15
20
-1.45
11
-0.15
21
1.72
72
1
10
-0.15
20
1.72
11
-0.18
21
1.72
72
4
94
2
73
1
74
0
95
6
96
3
40
0.0
40
0.0
40
0.0
40
1.0
40
1.0
40
1.0
10
-0.18
20
1.72
42
1.0
10
-0.41
20
1.69
42
1.0
10
-0.62
20
1.6
42
1.0
97
0
97
0
92
5
93
4
72
4
94
2
73
1
74
0
95
11
96
8
40
0.0
40
0.0
40
0.0
40
1.0
40
2.0
40
3.0
40
4.0
40
5.0
40
6.0
40
6.0
40
6.0
10
0.62
20
-1.33
42
1.0
10
0.91
20
-1.2
42
1.0
10
1.35
20
-0.77
42
1.0
10
1.6
20
-0.19
42
1.0
10
1.6
20
0.47
42
1.0
10
1.35
20
1.05
42
1.0
10
0.91
20
1.48
42
1.0
10
0.62
20
1.6
42
1.0
97
0
72
4
94
2
73
1
74
0
95
6
96
3
40
0.0
40
0.0
40
0.0
40
1.0
40
1.0
40
1.0
10
0.62
20
1.6
42
1.0
10
0.4
20
1.7
42
1.0
10
0.16
20
1.72
42
1.0
97
0
72
1
10
0.16
20
1.72
11
0.16
21
-1.45
72
4
94
2
73
1
74
0
95
6
96
3
40
0.0
40
0.0
40
0.0
40
1.0
40
1.0
40
1.0
10
0.16
20
-1.45
42
1.0
10
0.4
20
-1.42
42
1.0
10
0.62
20
-1.33
42
1.0
97
0
97
0
75
0
76
1
47
0.0
98
1
10
0.0
20
0.0
1001
ACAD
1010
0.0
1020
0.0
1030
0.0
0
ENDBLK
5
37
330
36
100
AcDbEntity
8
Armature_(Vannes_à_volant)
100
AcDbBlockEnd
0
BLOCK
5
46
330
44
100
AcDbEntity
8
Armature_(Vannes_incorporées)
100
AcDbBlockBegin
2
2
70
0
10
0.0
20
0.0
30
0.0
3
2
0
HATCH
5
47
330
44
100
AcDbEntity
8
0
62
7
420
16777215
6
ByLayer
370
-1
48
1.0
60
0
100
AcDbHatch
10
0.0
20
0.0
30
0.0
210
0.0
220
0.0
230
1.0
2
SOLID
70
1
71
0
91
1
92
5
93
4
72
4
94
2
73
1
74
0
95
9
96
6
40
0.0
40
0.0
40
0.0
40
1.0
40
2.0
40
3.0
40
4.0
40
4.0
40
4.0
10
1.528
20
0.0
42
1.0
10
1.528
20
-0.312
42
1.0
10
1.288
20
-0.872
42
1.0
10
0.872
20
-1.288
42
1.0
10
0.312
20
-1.528
42
1.0
10
0.0
20
-1.528
42
1.0
97
0
72
4
94
2
73
1
74
0
95
9
96
6
40
0.0
40
0.0
40
0.0
40
1.0
40
2.0
40
3.0
40
4.0
40
4.0
40
4.0
10
0.0
20
-1.528
42
1.0
10
-0.312
20
-1.528
42
1.0
10
-0.872
20
-1.288
42
1.0
10
-1.288
20
-0.872
42
1.0
10
-1.528
20
-0.312
42
1.0
10
-1.528
20
0.0
42
1.0
97
0
72
4
94
2
73
1
74
0
95
9
96
6
40
0.0
40
0.0
40
0.0
40
1.0
40
2.0
40
3.0
40
4.0
40
4.0
40
4.0
10
-1.528
20
0.0
42
1.0
10
-1.528
20
0.312
42
1.0
10
-1.288
20
0.872
42
1.0
10
-0.872
20
1.288
42
1.0
10
-0.312
20
1.528
42
1.0
10
0.0
20
1.528
42
1.0
97
0
72
4
94
2
73
1
74
0
95
9
96
6
40
0.0
40
0.0
40
0.0
40
1.0
40
2.0
40
3.0
40
4.0
40
4.0
40
4.0
10
0.0
20
1.528
42
1.0
10
0.312
20
1.528
42
1.0
10
0.872
20
1.288
42
1.0
10
1.288
20
0.872
42
1.0
10
1.528
20
0.312
42
1.0
10
1.528
20
0.0
42
1.0
97
0
97
0
75
0
76
1
47
0.0
98
1
10
0.0
20
0.0
1001
ACAD
1010
0.0
1020
0.0
1030
0.0
0
HATCH
5
48
330
44
100
AcDbEntity
8
0
62
175
420
18687
6
ByLayer
370
-1
48
1.0
60
0
100
AcDbHatch
10
0.0
20
0.0
30
0.0
210
0.0
220
0.0
230
1.0
2
SOLID
70
1
71
0
91
3
92
5
93
8
72
4
94
2
73
1
74
0
95
6
96
3
40
0.0
40
0.0
40
0.0
40
1.0
40
1.0
40
1.0
10
0.0
20
1.7
42
1.0
10
0.7
20
1.7
42
1.0
10
1.2
20
1.2
42
1.0
97
0
72
4
94
2
73
1
74
0
95
6
96
3
40
0.0
40
0.0
40
0.0
40
1.0
40
1.0
40
1.0
10
1.2
20
1.2
42
1.0
10
1.7
20
0.7
42
1.0
10
1.7
20
0.0
42
1.0
97
0
72
4
94
2
73
1
74
0
95
6
96
3
40
0.0
40
0.0
40
0.0
40
1.0
40
1.0
40
1.0
10
1.7
20
0.0
42
1.0
10
1.7
20
-0.7
42
1.0
10
1.2
20
-1.2
42
1.0
97
0
72
4
94
2
73
1
74
0
95
6
96
3
40
0.0
40
0.0
40
0.0
40
1.0
40
1.0
40
1.0
10
1.2
20
-1.2
42
1.0
10
0.7
20
-1.7
42
1.0
10
0.0
20
-1.7
42
1.0
97
0
72
4
94
2
73
1
74
0
95
6
96
3
40
0.0
40
0.0
40
0.0
40
1.0
40
1.0
40
1.0
10
0.0
20
-1.7
42
1.0
10
-0.7
20
-1.7
42
1.0
10
-1.2
20
-1.2
42
1.0
97
0
72
4
94
2
73
1
74
0
95
6
96
3
40
0.0
40
0.0
40
0.0
40
1.0
40
1.0
40
1.0
10
-1.2
20
-1.2
42
1.0
10
-1.7
20
-0.7
42
1.0
10
-1.7
20
0.0
42
1.0
97
0
72
4
94
2
73
1
74
0
95
6
96
3
40
0.0
40
0.0
40
0.0
40
1.0
40
1.0
40
1.0
10
-1.7
20
0.0
42
1.0
10
-1.7
20
0.7
42
1.0
10
-1.2
20
1.2
42
1.0
97
0
72
4
94
2
73
1
74
0
95
6
96
3
40
0.0
40
0.0
40
0.0
40
1.0
40
1.0
40
1.0
10
-1.2
20
1.2
42
1.0
10
-0.7
20
1.7
42
1.0
10
0.0
20
1.7
42
1.0
97
0
97
0
92
5
93
8
72
4
94
2
73
1
74
0
95
6
96
3
40
0.0
40
0.0
40
0.0
40
1.0
40
1.0
40
1.0
10
0.0
20
1.532
42
1.0
10
-0.632
20
1.532
42
1.0
10
-1.084
20
1.08
42
1.0
97
0
72
4
94
2
73
1
74
0
95
6
96
3
40
0.0
40
0.0
40
0.0
40
1.0
40
1.0
40
1.0
10
-1.084
20
1.08
42
1.0
10
-1.532
20
0.632
42
1.0
10
-1.532
20
0.0
42
1.0
97
0
72
4
94
2
73
1
74
0
95
6
96
3
40
0.0
40
0.0
40
0.0
40
1.0
40
1.0
40
1.0
10
-1.532
20
0.0
42
1.0
10
-1.532
20
-0.636
42
1.0
10
-1.084
20
-1.084
42
1.0
97
0
72
4
94
2
73
1
74
0
95
6
96
3
40
0.0
40
0.0
40
0.0
40
1.0
40
1.0
40
1.0
10
-1.084
20
-1.084
42
1.0
10
-0.636
20
-1.532
42
1.0
10
0.0
20
-1.532
42
1.0
97
0
72
4
94
2
73
1
74
0
95
6
96
3
40
0.0
40
0.0
40
0.0
40
1.0
40
1.0
40
1.0
10
0.0
20
-1.532
42
1.0
10
0.632
20
-1.532
42
1.0
10
1.08
20
-1.084
42
1.0
97
0
72
4
94
2
73
1
74
0
95
6
96
3
40
0.0
40
0.0
40
0.0
40
1.0
40
1.0
40
1.0
10
1.08
20
-1.084
42
1.0
10
1.532
20
-0.632
42
1.0
10
1.532
20
0.0
42
1.0
97
0
72
4
94
2
73
1
74
0
95
6
96
3
40
0.0
40
0.0
40
0.0
40
1.0
40
1.0
40
1.0
10
1.532
20
0.0
42
1.0
10
1.532
20
0.628
42
1.0
10
1.08
20
1.08
42
1.0
97
0
72
4
94
2
73
1
74
0
95
6
96
3
40
0.0
40
0.0
40
0.0
40
1.0
40
1.0
40
1.0
10
1.08
20
1.08
42
1.0
10
0.628
20
1.532
42
1.0
10
0.0
20
1.532
42
1.0
97
0
97
0
92
5
93
8
72
4
94
2
73
1
74
0
95
6
96
3
40
0.0
40
0.0
40
0.0
40
1.0
40
1.0
40
1.0
10
0.0
20
0.796
42
1.0
10
0.324
20
0.796
42
1.0
10
0.56
20
0.56
42
1.0
97
0
72
4
94
2
73
1
74
0
95
6
96
3
40
0.0
40
0.0
40
0.0
40
1.0
40
1.0
40
1.0
10
0.56
20
0.56
42
1.0
10
0.796
20
0.324
42
1.0
10
0.796
20
0.0
42
1.0
97
0
72
4
94
2
73
1
74
0
95
6
96
3
40
0.0
40
0.0
40
0.0
40
1.0
40
1.0
40
1.0
10
0.796
20
0.0
42
1.0
10
0.796
20
-0.324
42
1.0
10
0.56
20
-0.56
42
1.0
97
0
72
4
94
2
73
1
74
0
95
6
96
3
40
0.0
40
0.0
40
0.0
40
1.0
40
1.0
40
1.0
10
0.56
20
-0.56
42
1.0
10
0.328
20
-0.792
42
1.0
10
0.0
20
-0.792
42
1.0
97
0
72
4
94
2
73
1
74
0
95
6
96
3
40
0.0
40
0.0
40
0.0
40
1.0
40
1.0
40
1.0
10
0.0
20
-0.792
42
1.0
10
-0.328
20
-0.792
42
1.0
10
-0.56
20
-0.56
42
1.0
97
0
72
4
94
2
73
1
74
0
95
6
96
3
40
0.0
40
0.0
40
0.0
40
1.0
40
1.0
40
1.0
10
-0.56
20
-0.56
42
1.0
10
-0.792
20
-0.328
42
1.0
10
-0.792
20
0.0
42
1.0
97
0
72
4
94
2
73
1
74
0
95
6
96
3
40
0.0
40
0.0
40
0.0
40
1.0
40
1.0
40
1.0
10
-0.792
20
0.0
42
1.0
10
-0.792
20
0.328
42
1.0
10
-0.56
20
0.56
42
1.0
97
0
72
4
94
2
73
1
74
0
95
6
96
3
40
0.0
40
0.0
40
0.0
40
1.0
40
1.0
40
1.0
10
-0.56
20
0.56
42
1.0
10
-0.324
20
0.796
42
1.0
10
0.0
20
0.796
42
1.0
97
0
97
0
75
0
76
1
47
0.0
98
1
10
0.0
20
0.0
1001
ACAD
1010
0.0
1020
0.0
1030
0.0
0
ENDBLK
5
45
330
44
100
AcDbEntity
8
Armature_(Vannes_incorporées)
100
AcDbBlockEnd
0
BLOCK
5
4E
330
4C
100
AcDbEntity
8
Armature_(Vannes_normales)
100
AcDbBlockBegin
2
3
70
0
10
0.0
20
0.0
30
0.0
3
3
0
HATCH
5
4F
330
4C
100
AcDbEntity
8
0
62
7
420
16777215
6
ByLayer
370
-1
48
1.0
60
0
100
AcDbHatch
10
0.0
20
0.0
30
0.0
210
0.0
220
0.0
230
1.0
2
SOLID
70
1
71
0
91
1
92
5
93
4
72
4
94
2
73
1
74
0
95
9
96
6
40
0.0
40
0.0
40
0.0
40
1.0
40
2.0
40
3.0
40
4.0
40
4.0
40
4.0
10
1.91
20
0.0
42
1.0
10
1.91
20
-0.39
42
1.0
10
1.61
20
-1.09
42
1.0
10
1.09
20
-1.61
42
1.0
10
0.39
20
-1.91
42
1.0
10
0.0
20
-1.91
42
1.0
97
0
72
4
94
2
73
1
74
0
95
9
96
6
40
0.0
40
0.0
40
0.0
40
1.0
40
2.0
40
3.0
40
4.0
40
4.0
40
4.0
10
0.0
20
-1.91
42
1.0
10
-0.39
20
-1.91
42
1.0
10
-1.09
20
-1.61
42
1.0
10
-1.61
20
-1.09
42
1.0
10
-1.91
20
-0.39
42
1.0
10
-1.91
20
0.0
42
1.0
97
0
72
4
94
2
73
1
74
0
95
9
96
6
40
0.0
40
0.0
40
0.0
40
1.0
40
2.0
40
3.0
40
4.0
40
4.0
40
4.0
10
-1.91
20
0.0
42
1.0
10
-1.91
20
0.39
42
1.0
10
-1.61
20
1.09
42
1.0
10
-1.09
20
1.61
42
1.0
10
-0.39
20
1.91
42
1.0
10
0.0
20
1.91
42
1.0
97
0
72
4
94
2
73
1
74
0
95
9
96
6
40
0.0
40
0.0
40
0.0
40
1.0
40
2.0
40
3.0
40
4.0
40
4.0
40
4.0
10
0.0
20
1.91
42
1.0
10
0.39
20
1.91
42
1.0
10
1.09
20
1.61
42
1.0
10
1.61
20
1.09
42
1.0
10
1.91
20
0.39
42
1.0
10
1.91
20
0.0
42
1.0
97
0
97
0
75
0
76
1
47
0.0
98
1
10
0.0
20
0.0
1001
ACAD
1010
0.0
1020
0.0
1030
0.0
0
HATCH
5
50
330
4C
100
AcDbEntity
8
0
62
175
420
18687
6
ByLayer
370
-1
48
1.0
60
0
100
AcDbHatch
10
0.0
20
0.0
30
0.0
210
0.0
220
0.0
230
1.0
2
SOLID
70
1
71
0
91
3
92
5
93
4
72
4
94
2
73
1
74
0
95
9
96
6
40
0.0
40
0.0
40
0.0
40
1.0
40
2.0
40
3.0
40
4.0
40
4.0
40
4.0
10
1.91
20
0.0
42
1.0
10
1.91
20
-0.39
42
1.0
10
1.61
20
-1.09
42
1.0
10
1.09
20
-1.61
42
1.0
10
0.39
20
-1.91
42
1.0
10
0.0
20
-1.91
42
1.0
97
0
72
4
94
2
73
1
74
0
95
9
96
6
40
0.0
40
0.0
40
0.0
40
1.0
40
2.0
40
3.0
40
4.0
40
4.0
40
4.0
10
0.0
20
-1.91
42
1.0
10
-0.39
20
-1.91
42
1.0
10
-1.09
20
-1.61
42
1.0
10
-1.61
20
-1.09
42
1.0
10
-1.91
20
-0.39
42
1.0
10
-1.91
20
0.0
42
1.0
97
0
72
4
94
2
73
1
74
0
95
9
96
6
40
0.0
40
0.0
40
0.0
40
1.0
40
2.0
40
3.0
40
4.0
40
4.0
40
4.0
10
-1.91
20
0.0
42
1.0
10
-1.91
20
0.39
42
1.0
10
-1.61
20
1.09
42
1.0
10
-1.09
20
1.61
42
1.0
10
-0.39
20
1.91
42
1.0
10
0.0
20
1.91
42
1.0
97
0
72
4
94
2
73
1
74
0
95
9
96
6
40
0.0
40
0.0
40
0.0
40
1.0
40
2.0
40
3.0
40
4.0
40
4.0
40
4.0
10
0.0
20
1.91
42
1.0
10
0.39
20
1.91
42
1.0
10
1.09
20
1.61
42
1.0
10
1.61
20
1.09
42
1.0
10
1.91
20
0.39
42
1.0
10
1.91
20
0.0
42
1.0
97
0
97
0
92
5
93
7
72
1
10
-0.17
20
-1.59
11
-0.14
21
-1.59
72
1
10
-0.14
20
-1.59
11
-0.14
21
1.58
72
1
10
-0.14
20
1.58
11
-0.17
21
1.58
72
4
94
2
73
1
74
0
95
6
96
3
40
0.0
40
0.0
40
0.0
40
1.0
40
1.0
40
1.0
10
-0.17
20
1.58
42
1.0
10
-0.41
20
1.55
42
1.0
10
-0.62
20
1.46
42
1.0
97
0
72
4
94
2
73
1
74
0
95
8
96
5
40
0.0
40
0.0
40
0.0
40
1.0
40
2.0
40
3.0
40
3.0
40
3.0
10
-0.62
20
1.46
42
1.0
10
-0.91
20
1.34
42
1.0
10
-1.34
20
0.91
42
1.0
10
-1.59
20
0.33
42
1.0
10
-1.59
20
0.0
42
1.0
97
0
72
4
94
2
73
1
74
0
95
8
96
5
40
0.0
40
0.0
40
0.0
40
1.0
40
2.0
40
3.0
40
3.0
40
3.0
10
-1.59
20
0.0
42
1.0
10
-1.59
20
-0.33
42
1.0
10
-1.34
20
-0.91
42
1.0
10
-0.91
20
-1.34
42
1.0
10
-0.62
20
-1.47
42
1.0
97
0
72
4
94
2
73
1
74
0
95
6
96
3
40
0.0
40
0.0
40
0.0
40
1.0
40
1.0
40
1.0
10
-0.62
20
-1.47
42
1.0
10
-0.42
20
-1.57
42
1.0
10
-0.17
20
-1.59
42
1.0
97
0
97
0
92
5
93
5
72
4
94
2
73
1
74
0
95
11
96
8
40
0.0
40
0.0
40
0.0
40
1.0
40
2.0
40
3.0
40
4.0
40
5.0
40
6.0
40
6.0
40
6.0
10
0.62
20
-1.47
42
1.0
10
0.91
20
-1.34
42
1.0
10
1.34
20
-0.91
42
1.0
10
1.59
20
-0.33
42
1.0
10
1.59
20
0.33
42
1.0
10
1.34
20
0.91
42
1.0
10
0.91
20
1.34
42
1.0
10
0.62
20
1.46
42
1.0
97
0
72
4
94
2
73
1
74
0
95
6
96
3
40
0.0
40
0.0
40
0.0
40
1.0
40
1.0
40
1.0
10
0.62
20
1.46
42
1.0
10
0.41
20
1.55
42
1.0
10
0.19
20
1.58
42
1.0
97
0
72
1
10
0.19
20
1.58
11
0.18
21
1.58
72
1
10
0.18
20
1.58
11
0.18
21
-1.58
72
4
94
2
73
1
74
0
95
6
96
3
40
0.0
40
0.0
40
0.0
40
1.0
40
1.0
40
1.0
10
0.18
20
-1.58
42
1.0
10
0.41
20
-1.56
42
1.0
10
0.62
20
-1.47
42
1.0
97
0
97
0
75
0
76
1
47
0.0
98
1
10
0.0
20
0.0
1001
ACAD
1010
0.0
1020
0.0
1030
0.0
0
ENDBLK
5
4D
330
4C
100
AcDbEntity
8
Armature_(Vannes_normales)
100
AcDbBlockEnd
0
BLOCK
5
72
330
70
100
AcDbEntity
8
Branchement_d'immeuble
100
AcDbBlockBegin
2
5
70
0
10
0.0
20
0.0
30
0.0
3
5
0
HATCH
5
73
330
70
100
AcDbEntity
8
0
62
175
420
18687
6
ByLayer
370
-1
48
1.0
60
0
100
AcDbHatch
10
0.0
20
0.0
30
0.0
210
0.0
220
0.0
230
1.0
2
SOLID
70
1
71
0
91
1
92
5
93
3
72
1
10
-3.07
20
-0.02
11
0.06
21
5.52
72
1
10
0.06
20
5.52
11
3.08
21
-0.02
72
1
10
3.08
20
-0.02
11
-3.07
21
-0.02
97
0
75
0
76
1
47
0.0
98
1
10
0.0
20
0.0
1001
ACAD
1010
0.0
1020
0.0
1030
0.0
0
ENDBLK
5
71
330
70
100
AcDbEntity
8
Branchement_d'immeuble
100
AcDbBlockEnd
0
BLOCK
5
81
330
7F
100
AcDbEntity
8
BH__arrosage__sprinkler
100
AcDbBlockBegin
2
6
70
0
10
0.0
20
0.0
30
0.0
3
6
0
HATCH
5
82
330
7F
100
AcDbEntity
8
0
62
7
420
16777215
6
ByLayer
370
-1
48
1.0
60
0
100
AcDbHatch
10
0.0
20
0.0
30
0.0
210
0.0
220
0.0
230
1.0
2
SOLID
70
1
71
0
91
1
92
5
93
4
72
4
94
2
73
1
74
0
95
9
96
6
40
0.0
40
0.0
40
0.0
40
1.0
40
2.0
40
3.0
40
4.0
40
4.0
40
4.0
10
3.616
20
0.0
42
1.0
10
3.616
20
-0.752
42
1.0
10
3.056
20
-2.064
42
1.0
10
2.064
20
-3.056
42
1.0
10
0.752
20
-3.616
42
1.0
10
0.0
20
-3.616
42
1.0
97
0
72
4
94
2
73
1
74
0
95
9
96
6
40
0.0
40
0.0
40
0.0
40
1.0
40
2.0
40
3.0
40
4.0
40
4.0
40
4.0
10
0.0
20
-3.616
42
1.0
10
-0.752
20
-3.616
42
1.0
10
-2.064
20
-3.056
42
1.0
10
-3.056
20
-2.064
42
1.0
10
-3.616
20
-0.752
42
1.0
10
-3.616
20
0.0
42
1.0
97
0
72
4
94
2
73
1
74
0
95
9
96
6
40
0.0
40
0.0
40
0.0
40
1.0
40
2.0
40
3.0
40
4.0
40
4.0
40
4.0
10
-3.616
20
0.0
42
1.0
10
-3.616
20
0.752
42
1.0
10
-3.056
20
2.064
42
1.0
10
-2.064
20
3.056
42
1.0
10
-0.752
20
3.616
42
1.0
10
0.0
20
3.616
42
1.0
97
0
72
4
94
2
73
1
74
0
95
9
96
6
40
0.0
40
0.0
40
0.0
40
1.0
40
2.0
40
3.0
40
4.0
40
4.0
40
4.0
10
0.0
20
3.616
42
1.0
10
0.752
20
3.616
42
1.0
10
2.064
20
3.056
42
1.0
10
3.056
20
2.064
42
1.0
10
3.616
20
0.752
42
1.0
10
3.616
20
0.0
42
1.0
97
0
97
0
75
0
76
1
47
0.0
98
1
10
0.0
20
0.0
1001
ACAD
1010
0.0
1020
0.0
1030
0.0
0
HATCH
5
83
330
7F
100
AcDbEntity
8
0
62
1
420
16711680
6
ByLayer
370
-1
48
1.0
60
0
100
AcDbHatch
10
0.0
20
0.0
30
0.0
210
0.0
220
0.0
230
1.0
2
SOLID
70
1
71
0
91
2
92
5
93
4
72
4
94
2
73
1
74
0
95
9
96
6
40
0.0
40
0.0
40
0.0
40
1.0
40
2.0
40
3.0
40
4.0
40
4.0
40
4.0
10
2.224
20
0.0
42
1.0
10
2.224
20
0.464
42
1.0
10
1.872
20
1.28
42
1.0
10
1.28
20
1.872
42
1.0
10
0.464
20
2.224
42
1.0
10
0.0
20
2.224
42
1.0
97
0
72
4
94
2
73
1
74
0
95
9
96
6
40
0.0
40
0.0
40
0.0
40
1.0
40
2.0
40
3.0
40
4.0
40
4.0
40
4.0
10
0.0
20
2.224
42
1.0
10
-0.464
20
2.224
42
1.0
10
-1.264
20
1.872
42
1.0
10
-1.872
20
1.28
42
1.0
10
-2.208
20
0.464
42
1.0
10
-2.208
20
0.0
42
1.0
97
0
72
4
94
2
73
1
74
0
95
9
96
6
40
0.0
40
0.0
40
0.0
40
1.0
40
2.0
40
3.0
40
4.0
40
4.0
40
4.0
10
-2.208
20
0.0
42
1.0
10
-2.208
20
-0.464
42
1.0
10
-1.872
20
-1.264
42
1.0
10
-1.264
20
-1.856
42
1.0
10
-0.464
20
-2.208
42
1.0
10
0.0
20
-2.208
42
1.0
97
0
72
4
94
2
73
1
74
0
95
9
96
6
40
0.0
40
0.0
40
0.0
40
1.0
40
2.0
40
3.0
40
4.0
40
4.0
40
4.0
10
0.0
20
-2.208
42
1.0
10
0.464
20
-2.208
42
1.0
10
1.28
20
-1.856
42
1.0
10
1.872
20
-1.264
42
1.0
10
2.224
20
-0.464
42
1.0
10
2.224
20
0.0
42
1.0
97
0
97
0
92
5
93
4
72
4
94
2
73
1
74
0
95
9
96
6
40
0.0
40
0.0
40
0.0
40
1.0
40
2.0
40
3.0
40
4.0
40
4.0
40
4.0
10
3.616
20
0.0
42
1.0
10
3.616
20
-0.752
42
1.0
10
3.056
20
-2.064
42
1.0
10
2.064
20
-3.056
42
1.0
10
0.752
20
-3.616
42
1.0
10
0.0
20
-3.616
42
1.0
97
0
72
4
94
2
73
1
74
0
95
9
96
6
40
0.0
40
0.0
40
0.0
40
1.0
40
2.0
40
3.0
40
4.0
40
4.0
40
4.0
10
0.0
20
-3.616
42
1.0
10
-0.752
20
-3.616
42
1.0
10
-2.064
20
-3.056
42
1.0
10
-3.056
20
-2.064
42
1.0
10
-3.616
20
-0.752
42
1.0
10
-3.616
20
0.0
42
1.0
97
0
72
4
94
2
73
1
74
0
95
9
96
6
40
0.0
40
0.0
40
0.0
40
1.0
40
2.0
40
3.0
40
4.0
40
4.0
40
4.0
10
-3.616
20
0.0
42
1.0
10
-3.616
20
0.752
42
1.0
10
-3.056
20
2.064
42
1.0
10
-2.064
20
3.056
42
1.0
10
-0.752
20
3.616
42
1.0
10
0.0
20
3.616
42
1.0
97
0
72
4
94
2
73
1
74
0
95
9
96
6
40
0.0
40
0.0
40
0.0
40
1.0
40
2.0
40
3.0
40
4.0
40
4.0
40
4.0
10
0.0
20
3.616
42
1.0
10
0.752
20
3.616
42
1.0
10
2.064
20
3.056
42
1.0
10
3.056
20
2.064
42
1.0
10
3.616
20
0.752
42
1.0
10
3.616
20
0.0
42
1.0
97
0
97
0
75
0
76
1
47
0.0
98
1
10
0.0
20
0.0
1001
ACAD
1010
0.0
1020
0.0
1030
0.0
0
ENDBLK
5
80
330
7F
100
AcDbEntity
8
BH__arrosage__sprinkler
100
AcDbBlockEnd
0
BLOCK
5
8B
330
89
100
AcDbEntity
8
Composant_de_conduite
100
AcDbBlockBegin
2
7
70
0
10
0.0
20
0.0
30
0.0
3
7
0
HATCH
5
8C
330
89
100
AcDbEntity
8
0
62
250
420
0
6
ByLayer
370
-1
48
1.0
60
0
100
AcDbHatch
10
0.0
20
0.0
30
0.0
210
0.0
220
0.0
230
1.0
2
SOLID
70
1
71
0
91
1
92
5
93
20
72
1
10
0.73
20
1.365
11
0.73
21
1.21
72
1
10
0.73
20
1.21
11
0.18
21
1.21
72
1
10
0.18
20
1.21
11
0.18
21
0.135
72
1
10
0.18
20
0.135
11
0.97
21
0.135
72
1
10
0.97
20
0.135
11
0.97
21
0.88
72
1
10
0.97
20
0.88
11
1.13
21
0.88
72
1
10
1.13
20
0.88
11
1.13
21
-0.765
72
1
10
1.13
20
-0.765
11
0.97
21
-0.765
72
1
10
0.97
20
-0.765
11
0.97
21
-0.025
72
1
10
0.97
20
-0.025
11
-0.97
21
-0.025
72
1
10
-0.97
20
-0.025
11
-0.97
21
-0.765
72
1
10
-0.97
20
-0.765
11
-1.13
21
-0.765
72
1
10
-1.13
20
-0.765
11
-1.13
21
0.88
72
1
10
-1.13
20
0.88
11
-0.97
21
0.88
72
1
10
-0.97
20
0.88
11
-0.97
21
0.135
72
1
10
-0.97
20
0.135
11
-0.185
21
0.135
72
1
10
-0.185
20
0.135
11
-0.185
21
1.21
72
1
10
-0.185
20
1.21
11
-0.73
21
1.21
72
1
10
-0.73
20
1.21
11
-0.73
21
1.365
72
1
10
-0.73
20
1.365
11
0.73
21
1.365
97
0
75
0
76
1
47
0.0
98
1
10
0.0
20
0.0
1001
ACAD
1010
0.0
1020
0.0
1030
0.0
0
ENDBLK
5
8A
330
89
100
AcDbEntity
8
Composant_de_conduite
100
AcDbBlockEnd
0
BLOCK
5
91
330
8F
100
AcDbEntity
8
Composant_de_conduite
100
AcDbBlockBegin
2
8
70
0
10
0.0
20
0.0
30
0.0
3
8
0
HATCH
5
92
330
8F
100
AcDbEntity
8
0
62
250
420
0
6
ByLayer
370
-1
48
1.0
60
0
100
AcDbHatch
10
0.0
20
0.0
30
0.0
210
0.0
220
0.0
230
1.0
2
SOLID
70
1
71
0
91
1
92
5
93
20
72
1
10
0.73
20
1.365
11
0.73
21
1.21
72
1
10
0.73
20
1.21
11
0.18
21
1.21
72
1
10
0.18
20
1.21
11
0.18
21
0.135
72
1
10
0.18
20
0.135
11
0.97
21
0.135
72
1
10
0.97
20
0.135
11
0.97
21
0.88
72
1
10
0.97
20
0.88
11
1.13
21
0.88
72
1
10
1.13
20
0.88
11
1.13
21
-0.765
72
1
10
1.13
20
-0.765
11
0.97
21
-0.765
72
1
10
0.97
20
-0.765
11
0.97
21
-0.025
72
1
10
0.97
20
-0.025
11
-0.97
21
-0.025
72
1
10
-0.97
20
-0.025
11
-0.97
21
-0.765
72
1
10
-0.97
20
-0.765
11
-1.13
21
-0.765
72
1
10
-1.13
20
-0.765
11
-1.13
21
0.88
72
1
10
-1.13
20
0.88
11
-0.97
21
0.88
72
1
10
-0.97
20
0.88
11
-0.97
21
0.135
72
1
10
-0.97
20
0.135
11
-0.185
21
0.135
72
1
10
-0.185
20
0.135
11
-0.185
21
1.21
72
1
10
-0.185
20
1.21
11
-0.73
21
1.21
72
1
10
-0.73
20
1.21
11
-0.73
21
1.365
72
1
10
-0.73
20
1.365
11
0.73
21
1.365
97
0
75
0
76
1
47
0.0
98
1
10
0.0
20
0.0
1001
ACAD
1010
0.0
1020
0.0
1030
0.0
0
ENDBLK
5
90
330
8F
100
AcDbEntity
8
Composant_de_conduite
100
AcDbBlockEnd
0
BLOCK
5
97
330
95
100
AcDbEntity
8
Composant_de_conduite
100
AcDbBlockBegin
2
9
70
0
10
0.0
20
0.0
30
0.0
3
9
0
HATCH
5
98
330
95
100
AcDbEntity
8
0
62
250
420
0
6
ByLayer
370
-1
48
1.0
60
0
100
AcDbHatch
10
0.0
20
0.0
30
0.0
210
0.0
220
0.0
230
1.0
2
SOLID
70
1
71
0
91
1
92
5
93
8
72
1
10
0.115
20
-1.01
11
-0.045
21
-1.01
72
1
10
-0.045
20
-1.01
11
-0.045
21
-0.045
72
1
10
-0.045
20
-0.045
11
-1.715
21
-1.01
72
1
10
-1.715
20
-1.01
11
-1.715
21
1.01
72
1
10
-1.715
20
1.01
11
-0.045
21
0.045
72
1
10
-0.045
20
0.045
11
-0.045
21
1.01
72
1
10
-0.045
20
1.01
11
0.115
21
1.01
72
1
10
0.115
20
1.01
11
0.115
21
-1.01
97
0
75
0
76
1
47
0.0
98
1
10
0.0
20
0.0
1001
ACAD
1010
0.0
1020
0.0
1030
0.0
0
ENDBLK
5
96
330
95
100
AcDbEntity
8
Composant_de_conduite
100
AcDbBlockEnd
0
BLOCK
5
9F
330
9D
100
AcDbEntity
8
Composant_de_conduite
100
AcDbBlockBegin
2
10
70
0
10
0.0
20
0.0
30
0.0
3
10
0
HATCH
5
A0
330
9D
100
AcDbEntity
8
0
62
250
420
0
6
ByLayer
370
-1
48
1.0
60
0
100
AcDbHatch
10
0.0
20
0.0
30
0.0
210
0.0
220
0.0
230
1.0
2
SOLID
70
1
71
0
91
1
92
5
93
4
72
4
94
2
73
1
74
0
95
9
96
6
40
0.0
40
0.0
40
0.0
40
1.0
40
2.0
40
3.0
40
4.0
40
4.0
40
4.0
10
0.515
20
0.0
42
1.0
10
0.515
20
-0.105
42
1.0
10
0.435
20
-0.295
42
1.0
10
0.295
20
-0.435
42
1.0
10
0.105
20
-0.515
42
1.0
10
0.0
20
-0.515
42
1.0
97
0
72
4
94
2
73
1
74
0
95
9
96
6
40
0.0
40
0.0
40
0.0
40
1.0
40
2.0
40
3.0
40
4.0
40
4.0
40
4.0
10
0.0
20
-0.515
42
1.0
10
-0.105
20
-0.515
42
1.0
10
-0.295
20
-0.435
42
1.0
10
-0.435
20
-0.295
42
1.0
10
-0.515
20
-0.105
42
1.0
10
-0.515
20
0.0
42
1.0
97
0
72
4
94
2
73
1
74
0
95
9
96
6
40
0.0
40
0.0
40
0.0
40
1.0
40
2.0
40
3.0
40
4.0
40
4.0
40
4.0
10
-0.515
20
0.0
42
1.0
10
-0.515
20
0.105
42
1.0
10
-0.435
20
0.295
42
1.0
10
-0.295
20
0.435
42
1.0
10
-0.105
20
0.515
42
1.0
10
0.0
20
0.515
42
1.0
97
0
72
4
94
2
73
1
74
0
95
9
96
6
40
0.0
40
0.0
40
0.0
40
1.0
40
2.0
40
3.0
40
4.0
40
4.0
40
4.0
10
0.0
20
0.515
42
1.0
10
0.105
20
0.515
42
1.0
10
0.295
20
0.435
42
1.0
10
0.435
20
0.295
42
1.0
10
0.515
20
0.105
42
1.0
10
0.515
20
0.0
42
1.0
97
0
97
0
75
0
76
1
47
0.0
98
1
10
0.0
20
0.0
1001
ACAD
1010
0.0
1020
0.0
1030
0.0
0
ENDBLK
5
9E
330
9D
100
AcDbEntity
8
Composant_de_conduite
100
AcDbBlockEnd
0
BLOCK
5
BB
330
B9
100
AcDbEntity
8
Composant_de_conduite
100
AcDbBlockBegin
2
11
70
0
10
0.0
20
0.0
30
0.0
3
11
0
HATCH
5
BC
330
B9
100
AcDbEntity
8
0
62
250
420
0
6
ByLayer
370
-1
48
1.0
60
0
100
AcDbHatch
10
0.0
20
0.0
30
0.0
210
0.0
220
0.0
230
1.0
2
SOLID
70
1
71
0
91
1
92
5
93
4
72
4
94
2
73
1
74
0
95
9
96
6
40
0.0
40
0.0
40
0.0
40
1.0
40
2.0
40
3.0
40
4.0
40
4.0
40
4.0
10
0.515
20
0.0
42
1.0
10
0.515
20
-0.105
42
1.0
10
0.435
20
-0.295
42
1.0
10
0.295
20
-0.435
42
1.0
10
0.105
20
-0.515
42
1.0
10
0.0
20
-0.515
42
1.0
97
0
72
4
94
2
73
1
74
0
95
9
96
6
40
0.0
40
0.0
40
0.0
40
1.0
40
2.0
40
3.0
40
4.0
40
4.0
40
4.0
10
0.0
20
-0.515
42
1.0
10
-0.105
20
-0.515
42
1.0
10
-0.295
20
-0.435
42
1.0
10
-0.435
20
-0.295
42
1.0
10
-0.515
20
-0.105
42
1.0
10
-0.515
20
0.0
42
1.0
97
0
72
4
94
2
73
1
74
0
95
9
96
6
40
0.0
40
0.0
40
0.0
40
1.0
40
2.0
40
3.0
40
4.0
40
4.0
40
4.0
10
-0.515
20
0.0
42
1.0
10
-0.515
20
0.105
42
1.0
10
-0.435
20
0.295
42
1.0
10
-0.295
20
0.435
42
1.0
10
-0.105
20
0.515
42
1.0
10
0.0
20
0.515
42
1.0
97
0
72
4
94
2
73
1
74
0
95
9
96
6
40
0.0
40
0.0
40
0.0
40
1.0
40
2.0
40
3.0
40
4.0
40
4.0
40
4.0
10
0.0
20
0.515
42
1.0
10
0.105
20
0.515
42
1.0
10
0.295
20
0.435
42
1.0
10
0.435
20
0.295
42
1.0
10
0.515
20
0.105
42
1.0
10
0.515
20
0.0
42
1.0
97
0
97
0
75
0
76
1
47
0.0
98
1
10
0.0
20
0.0
1001
ACAD
1010
0.0
1020
0.0
1030
0.0
0
ENDBLK
5
BA
330
B9
100
AcDbEntity
8
Composant_de_conduite
100
AcDbBlockEnd
0
BLOCK
5
D1
330
CF
100
AcDbEntity
8
0
100
AcDbBlockBegin
2
*Paper_Space
70
0
10
0.0
20
0.0
30
0.0
3
*Paper_Space
0
ENDBLK
5
D0
330
CF
100
AcDbEntity
8
0
100
AcDbBlockEnd
0
ENDSEC
0
SECTION
2
ENTITIES
0
MTEXT
5
21
330
1A
100
AcDbEntity
67
0
8
Numéro___Hydrant_(L)
62
1
420
16711680
440
33554687
6
ByLayer
370
-1
48
1.0
60
0
100
AcDbMText
10
2506568.69599209
20
1138381.05699962
30
0.0
210
0.0
220
0.0
230
1.0
1
{\fArial|b0|i0;261}
40
1.28763888888889
41
0.0
44
1.0
50
0.0
71
7
72
5
7
TS[Numéro___Hydrant_(L)[Arial_10_Regular__CW100_]]
0
MTEXT
5
23
330
1A
100
AcDbEntity
67
0
8
Numéro___Hydrant_(L)
62
1
420
16711680
440
33554687
6
ByLayer
370
-1
48
1.0
60
0
100
AcDbMText
10
2506539.00499181
20
1138313.83997897
30
0.0
210
0.0
220
0.0
230
1.0
1
{\fArial|b0|i0;262}
40
1.28763888888889
41
0.0
44
1.0
50
0.0
71
7
72
5
7
TS[Numéro___Hydrant_(L)[Arial_10_Regular__CW100_]]
0
MTEXT
5
25
330
1A
100
AcDbEntity
67
0
8
Matériau_Diamètre___Conduite_(L)
62
175
420
18687
440
33554687
6
ByLayer
370
-1
48
1.0
60
0
100
AcDbMText
10
2506581.85549394
20
1138382.56949483
30
0.0
210
0.0
220
0.0
230
1.0
1
{\fArial|b0|i0;PE100 S8 160}
40
0.64381944444444
41
0.0
44
1.0
50
51.167286827603
71
8
72
5
7
TS[Matériau_Diamètre___Conduite_(L)[Arial_5_Regular__CW100_]]
0
MTEXT
5
27
330
1A
100
AcDbEntity
67
0
8
Matériau_Diamètre___Conduite_(L)
62
175
420
18687
440
33554687
6
ByLayer
370
-1
48
1.0
60
0
100
AcDbMText
10
2506574.54451218
20
1138381.44900842
30
0.0
210
0.0
220
0.0
230
1.0
1
{\fArial|b0|i0;PE100 S8 125}
40
0.64381944444444
41
0.0
44
1.0
50
50.3118702477978
71
8
72
5
7
TS[Matériau_Diamètre___Conduite_(L)[Arial_5_Regular__CW100_]]
0
MTEXT
5
28
330
1A
100
AcDbEntity
67
0
8
Matériau_Diamètre___Conduite_(L)
62
175
420
18687
440
33554687
6
ByLayer
370
-1
48
1.0
60
0
100
AcDbMText
10
2506599.92148834
20
1138356.89001463
30
0.0
210
0.0
220
0.0
230
1.0
1
{\fArial|b0|i0;PE100 S8 250}
40
0.64381944444444
41
0.0
44
1.0
50
51.778047860589
71
8
72
5
7
TS[Matériau_Diamètre___Conduite_(L)[Arial_5_Regular__CW100_]]
0
MTEXT
5
29
330
1A
100
AcDbEntity
67
0
8
Matériau_Diamètre___Conduite_(L)
62
175
420
18687
440
33554687
6
ByLayer
370
-1
48
1.0
60
0
100
AcDbMText
10
2506520.98099657
20
1138288.45749637
30
0.0
210
0.0
220
0.0
230
1.0
1
{\fArial|b0|i0;PE100 S8 160}
40
0.64381944444444
41
0.0
44
1.0
50
51.6957416291893
71
8
72
5
7
TS[Matériau_Diamètre___Conduite_(L)[Arial_5_Regular__CW100_]]
0
MTEXT
5
2A
330
1A
100
AcDbEntity
67
0
8
Matériau_Diamètre___Conduite_(L)
62
175
420
18687
440
33554687
6
ByLayer
370
-1
48
1.0
60
0
100
AcDbMText
10
2506602.26300384
20
1138384.93949368
30
0.0
210
0.0
220
0.0
230
1.0
1
{\fArial|b0|i0;PE100 S8 160}
40
0.64381944444444
41
0.0
44
1.0
50
330.561386593295
71
8
72
5
7
TS[Matériau_Diamètre___Conduite_(L)[Arial_5_Regular__CW100_]]
0
MTEXT
5
2B
330
1A
100
AcDbEntity
67
0
8
Matériau_Diamètre___Conduite_(L)
62
175
420
18687
440
33554687
6
ByLayer
370
-1
48
1.0
60
0
100
AcDbMText
10
2506553.30049824
20
1138382.24198652
30
0.0
210
0.0
220
0.0
230
1.0
1
{\fArial|b0|i0;PE 50}
40
0.38629166666667
41
0.0
44
1.0
50
57.7890721860191
71
8
72
5
7
TS[Matériau_Diamètre___Conduite_(L)[Arial_3_Regular__CW100_]]
0
MTEXT
5
2D
330
1A
100
AcDbEntity
67
0
8
Matériau_Diamètre___Conduite_(L)
62
175
420
18687
440
33554687
6
ByLayer
370
-1
48
1.0
60
0
100
AcDbMText
10
2506540.08
20
1138391.9755036
30
0.0
210
0.0
220
0.0
230
1.0
1
{\fArial|b0|i0;PE 63}
40
0.38629166666667
41
0.0
44
1.0
50
53.9899162598347
71
8
72
5
7
TS[Matériau_Diamètre___Conduite_(L)[Arial_3_Regular__CW100_]]
0
MTEXT
5
2E
330
1A
100
AcDbEntity
67
0
8
Matériau_Diamètre___Conduite_(L)
62
175
420
18687
440
33554687
6
ByLayer
370
-1
48
1.0
60
0
100
AcDbMText
10
2506540.04350729
20
1138316.09098855
30
0.0
210
0.0
220
0.0
230
1.0
1
{\fArial|b0|i0;PE100 S8 125}
40
0.64381944444444
41
0.0
44
1.0
50
45.60689423954
71
8
72
5
7
TS[Matériau_Diamètre___Conduite_(L)[Arial_5_Regular__CW100_]]
0
MTEXT
5
2F
330
1A
100
AcDbEntity
67
0
8
Matériau_Diamètre___Conduite_(L)
62
175
420
18687
440
33554687
6
ByLayer
370
-1
48
1.0
60
0
100
AcDbMText
10
2506526.24300521
20
1138321.74297862
30
0.0
210
0.0
220
0.0
230
1.0
1
{\fArial|b0|i0;PE100 S8 250}
40
0.64381944444444
41
0.0
44
1.0
50
323.291795847549
71
8
72
5
7
TS[Matériau_Diamètre___Conduite_(L)[Arial_5_Regular__CW100_]]
0
MTEXT
5
30
330
1A
100
AcDbEntity
67
0
8
Matériau_Diamètre___Conduite_(L)
62
175
420
18687
440
33554687
6
ByLayer
370
-1
48
1.0
60
0
100
AcDbMText
10
2506592.09898289
20
1138350.49400375
30
0.0
210
0.0
220
0.0
230
1.0
1
{\fArial|b0|i0;PE100 S8 90}
40
0.38629166666667
41
0.0
44
1.0
50
312.241649319442
71
8
72
5
7
TS[Matériau_Diamètre___Conduite_(L)[Arial_3_Regular__CW100_]]
0
MTEXT
5
31
330
1A
100
AcDbEntity
67
0
8
Matériau_Diamètre___Conduite_(L)
62
175
420
18687
440
33554687
6
ByLayer
370
-1
48
1.0
60
0
100
AcDbMText
10
2506560.70348768
20
1138288.14100095
30
0.0
210
0.0
220
0.0
230
1.0
1
{\fArial|b0|i0;PE100 S8 125}
40
0.64381944444444
41
0.0
44
1.0
50
291.535405085036
71
8
72
5
7
TS[Matériau_Diamètre___Conduite_(L)[Arial_5_Regular__CW100_]]
0
MTEXT
5
32
330
1A
100
AcDbEntity
67
0
8
Matériau_Diamètre___Conduite_(L)
62
175
420
18687
440
33554687
6
ByLayer
370
-1
48
1.0
60
0
100
AcDbMText
10
2506552.84291268
20
1138389.76814512
30
0.0
210
0.0
220
0.0
230
1.0
1
{\fArial|b0|i0;PE100 S8 160}
40
0.64381944444444
41
0.0
44
1.0
50
321.474570473532
71
8
72
5
7
TS[Matériau_Diamètre___Conduite_(L)[Arial_5_Regular__CW100_]]
0
INSERT
5
35
330
1A
100
AcDbEntity
67
0
8
Armature_(Vannes_à_volant)
62
0
440
33554687
6
ByLayer
370
-1
48
1.0
60
0
100
AcDbBlockReference
2
1
10
2506614.00702401
20
1138376.34198117
30
0.0
41
0.17638888888889
42
0.17638888888889
43
0.17638888888889
50
58.4055
210
0.0
220
0.0
230
1.0
0
INSERT
5
3C
330
1A
100
AcDbEntity
67
0
8
Armature_(Vannes_à_volant)
62
0
440
33554687
6
ByLayer
370
-1
48
1.0
60
0
100
AcDbBlockReference
2
1
10
2506615.99700308
20
1138378.10599577
30
0.0
41
0.17638888888889
42
0.17638888888889
43
0.17638888888889
50
57.6027
210
0.0
220
0.0
230
1.0
0
INSERT
5
3E
330
1A
100
AcDbEntity
67
0
8
Armature_(Vannes_à_volant)
62
0
440
33554687
6
ByLayer
370
-1
48
1.0
60
0
100
AcDbBlockReference
2
1
10
2506537.67498517
20
1138310.82900494
30
0.0
41
0.17638888888889
42
0.17638888888889
43
0.17638888888889
50
328.4145
210
0.0
220
0.0
230
1.0
0
INSERT
5
40
330
1A
100
AcDbEntity
67
0
8
Armature_(Vannes_à_volant)
62
0
440
33554687
6
ByLayer
370
-1
48
1.0
60
0
100
AcDbBlockReference
2
1
10
2506538.99197658
20
1138309.87298601
30
0.0
41
0.17638888888889
42
0.17638888888889
43
0.17638888888889
50
327.4587
210
0.0
220
0.0
230
1.0
0
INSERT
5
43
330
1A
100
AcDbEntity
67
0
8
Armature_(Vannes_incorporées)
62
0
440
33554687
6
ByLayer
370
-1
48
1.0
60
0
100
AcDbBlockReference
2
2
10
2506556.13799424
20
1138386.46397793
30
0.0
41
0.17638888888889
42
0.17638888888889
43
0.17638888888889
50
0.0
210
0.0
220
0.0
230
1.0
0
INSERT
5
4B
330
1A
100
AcDbEntity
67
0
8
Armature_(Vannes_normales)
62
0
440
33554687
6
ByLayer
370
-1
48
1.0
60
0
100
AcDbBlockReference
2
3
10
2506612.71100716
20
1138379.04599594
30
0.0
41
0.17638888888889
42
0.17638888888889
43
0.17638888888889
50
331.7202
210
0.0
220
0.0
230
1.0
0
INSERT
5
52
330
1A
100
AcDbEntity
67
0
8
Armature_(Vannes_normales)
62
0
440
33554687
6
ByLayer
370
-1
48
1.0
60
0
100
AcDbBlockReference
2
3
10
2506537.53802488
20
1138309.32399347
30
0.0
41
0.17638888888889
42
0.17638888888889
43
0.17638888888889
50
0.0
210
0.0
220
0.0
230
1.0
0
INSERT
5
54
330
1A
100
AcDbEntity
67
0
8
Armature_(Vannes_normales)
62
0
440
33554687
6
ByLayer
370
-1
48
1.0
60
0
100
AcDbBlockReference
2
3
10
2506570.30102061
20
1138376.62301008
30
0.0
41
0.17638888888889
42
0.17638888888889
43
0.17638888888889
50
0.0
210
0.0
220
0.0
230
1.0
0
INSERT
5
56
330
1A
100
AcDbEntity
67
0
8
Armature_(Vannes_normales)
62
0
440
33554687
6
ByLayer
370
-1
48
1.0
60
0
100
AcDbBlockReference
2
3
10
2506536.5540232
20
1138312.72302169
30
0.0
41
0.17638888888889
42
0.17638888888889
43
0.17638888888889
50
0.0
210
0.0
220
0.0
230
1.0
0
INSERT
5
58
330
1A
100
AcDbEntity
67
0
8
Armature_(Vannes_normales)
62
0
440
33554687
6
ByLayer
370
-1
48
1.0
60
0
100
AcDbBlockReference
2
3
10
2506593.36901934
20
1138348.54599881
30
0.0
41
0.17638888888889
42
0.17638888888889
43
0.17638888888889
50
0.0
210
0.0
220
0.0
230
1.0
0
INSERT
5
5A
330
1A
100
AcDbEntity
67
0
8
Armature_(Vannes_normales)
62
0
440
33554687
6
ByLayer
370
-1
48
1.0
60
0
100
AcDbBlockReference
2
3
10
2506556.73198945
20
1138298.66401706
30
0.0
41
0.17638888888889
42
0.17638888888889
43
0.17638888888889
50
279.79
210
0.0
220
0.0
230
1.0
0
LWPOLYLINE
5
5C
330
1A
100
AcDbEntity
67
0
8
Conduites_(transports__distribution)
62
175
420
18687
440
33554687
6
4
370
-1
48
1.0
60
0
100
AcDbPolyline
90
3
70
0
38
0.0
39
0.0
10
2506538.32199243
20
1138310.36100719
40
0.05291666666667
41
0.05291666666667
42
0.0
10
2506537.67498517
20
1138310.82900494
40
0.05291666666667
41
0.05291666666667
42
0.0
10
2506536.02400287
20
1138312.19700604
40
0.05291666666667
41
0.05291666666667
42
0.0
210
0.0
220
0.0
230
1.0
0
LWPOLYLINE
5
5E
330
1A
100
AcDbEntity
67
0
8
Conduites_(transports__distribution)
62
175
420
18687
440
33554687
6
4
370
-1
48
1.0
60
0
100
AcDbPolyline
90
3
70
0
38
0.0
39
0.0
10
2506536.02400287
20
1138312.19700604
40
0.05291666666667
41
0.05291666666667
42
0.0
10
2506536.5540232
20
1138312.72302169
40
0.05291666666667
41
0.05291666666667
42
0.0
10
2506537.12298912
20
1138313.28598057
40
0.05291666666667
41
0.05291666666667
42
0.0
210
0.0
220
0.0
230
1.0
0
LWPOLYLINE
5
5F
330
1A
100
AcDbEntity
67
0
8
Conduites_(transports__distribution)
62
175
420
18687
440
33554687
6
4
370
-1
48
1.0
60
0
100
AcDbPolyline
90
2
70
0
38
0.0
39
0.0
10
2506614.07300123
20
1138378.31799389
40
0.05291666666667
41
0.05291666666667
42
0.0
10
2506614.85101182
20
1138377.88698944
40
0.05291666666667
41
0.05291666666667
42
0.0
210
0.0
220
0.0
230
1.0
0
LWPOLYLINE
5
60
330
1A
100
AcDbEntity
67
0
8
Conduites_(transports__distribution)
62
175
420
18687
440
33554687
6
4
370
-1
48
1.0
60
0
100
AcDbPolyline
90
2
70
0
38
0.0
39
0.0
10
2506614.85101182
20
1138377.88698944
40
0.05291666666667
41
0.05291666666667
42
0.0
10
2506615.62802123
20
1138377.47200374
40
0.05291666666667
41
0.05291666666667
42
0.0
210
0.0
220
0.0
230
1.0
0
LWPOLYLINE
5
61
330
1A
100
AcDbEntity
67
0
8
Conduites_(transports__distribution)
62
175
420
18687
440
33554687
6
4
370
-1
48
1.0
60
0
100
AcDbPolyline
90
3
70
0
38
0.0
39
0.0
10
2506625.9625167
20
1138372.17690638
40
0.05291666666667
41
0.05291666666667
42
0.0
10
2506616.19198128
20
1138377.16499442
40
0.05291666666667
41
0.05291666666667
42
0.0
10
2506615.62802123
20
1138377.47200374
40
0.05291666666667
41
0.05291666666667
42
0.0
210
0.0
220
0.0
230
1.0
0
LWPOLYLINE
5
62
330
1A
100
AcDbEntity
67
0
8
Conduites_(transports__distribution)
62
175
420
18687
440
33554687
6
4
370
-1
48
1.0
60
0
100
AcDbPolyline
90
4
70
0
38
0.0
39
0.0
10
2506516.46250814
20
1138282.73757679
40
0.05291666666667
41
0.05291666666667
42
0.0
10
2506526.23900052
20
1138295.11301097
40
0.05291666666667
41
0.05291666666667
42
0.0
10
2506537.53802488
20
1138309.32399347
40
0.05291666666667
41
0.05291666666667
42
0.0
10
2506538.32199243
20
1138310.36100719
40
0.05291666666667
41
0.05291666666667
42
0.0
210
0.0
220
0.0
230
1.0
0
LWPOLYLINE
5
63
330
1A
100
AcDbEntity
67
0
8
Conduites_(transports__distribution)
62
175
420
18687
440
33554687
6
4
370
-1
48
1.0
60
0
100
AcDbPolyline
90
3
70
0
38
0.0
39
0.0
10
2506569.81099709
20
1138376.00799026
40
0.05291666666667
41
0.05291666666667
42
0.0
10
2506570.30102061
20
1138376.62301008
40
0.05291666666667
41
0.05291666666667
42
0.0
10
2506571.85599054
20
1138378.5779982
40
0.05291666666667
41
0.05291666666667
42
0.0
210
0.0
220
0.0
230
1.0
0
LWPOLYLINE
5
64
330
1A
100
AcDbEntity
67
0
8
Conduites_(transports__distribution)
62
175
420
18687
440
33554687
6
4
370
-1
48
1.0
60
0
100
AcDbPolyline
90
9
70
0
38
0.0
39
0.0
10
2506614.07300123
20
1138378.31799389
40
0.05291666666667
41
0.05291666666667
42
0.0
10
2506613.49302243
20
1138378.64497659
40
0.05291666666667
41
0.05291666666667
42
0.0
10
2506612.71100716
20
1138379.04599594
40
0.05291666666667
41
0.05291666666667
42
0.0
10
2506590.22198606
20
1138391.08798986
40
0.05291666666667
41
0.05291666666667
42
0.0
10
2506589.79798982
20
1138391.29498213
40
0.05291666666667
41
0.05291666666667
42
0.0
10
2506589.50199338
20
1138391.20497678
40
0.05291666666667
41
0.05291666666667
42
0.0
10
2506575.29101088
20
1138372.22601385
40
0.05291666666667
41
0.05291666666667
42
0.0
10
2506574.927986
20
1138372.13100265
40
0.05291666666667
41
0.05291666666667
42
0.0
10
2506569.81099709
20
1138376.00799026
40
0.05291666666667
41
0.05291666666667
42
0.0
210
0.0
220
0.0
230
1.0
0
LWPOLYLINE
5
65
330
1A
100
AcDbEntity
67
0
8
Conduites_(transports__distribution)
62
175
420
18687
440
33554687
6
4
370
-1
48
1.0
60
0
100
AcDbPolyline
90
10
70
0
38
0.0
39
0.0
10
2506614.85101182
20
1138377.88698944
40
0.05291666666667
41
0.05291666666667
42
0.0
10
2506614.00702401
20
1138376.34198117
40
0.05291666666667
41
0.05291666666667
42
0.0
10
2506608.29699101
20
1138367.58097731
40
0.05291666666667
41
0.05291666666667
42
0.0
10
2506602.30297562
20
1138359.55498371
40
0.05291666666667
41
0.05291666666667
42
0.0
10
2506593.72999182
20
1138348.14998532
40
0.05291666666667
41
0.05291666666667
42
0.0
10
2506590.27900279
20
1138343.55901206
40
0.05291666666667
41
0.05291666666667
42
0.0
10
2506584.40497785
20
1138335.56200238
40
0.05291666666667
41
0.05291666666667
42
0.0
10
2506569.51500065
20
1138315.7560215
40
0.05291666666667
41
0.05291666666667
42
0.0
10
2506557.35702098
20
1138299.28399268
40
0.05291666666667
41
0.05291666666667
42
0.0
10
2506556.65499934
20
1138299.10798668
40
0.05291666666667
41
0.05291666666667
42
0.0
210
0.0
220
0.0
230
1.0
0
LWPOLYLINE
5
66
330
1A
100
AcDbEntity
67
0
8
Conduites_(transports__distribution)
62
175
420
18687
440
33554687
6
4
370
-1
48
1.0
60
0
100
AcDbPolyline
90
4
70
0
38
0.0
39
0.0
10
2506556.65499934
20
1138299.10798668
40
0.05291666666667
41
0.05291666666667
42
0.0
10
2506554.80898877
20
1138298.64299245
40
0.05291666666667
41
0.05291666666667
42
0.0
10
2506538.99197658
20
1138309.87298601
40
0.05291666666667
41
0.05291666666667
42
0.0
10
2506538.32199243
20
1138310.36100719
40
0.05291666666667
41
0.05291666666667
42
0.0
210
0.0
220
0.0
230
1.0
0
LWPOLYLINE
5
67
330
1A
100
AcDbEntity
67
0
8
Conduites_(transports__distribution)
62
175
420
18687
440
33554687
6
4
370
-1
48
1.0
60
0
100
AcDbPolyline
90
10
70
0
38
0.0
39
0.0
10
2506556.65499934
20
1138299.10798668
40
0.05291666666667
41
0.05291666666667
42
0.0
10
2506556.73198945
20
1138298.66401706
40
0.05291666666667
41
0.05291666666667
42
0.0
10
2506556.82599948
20
1138298.12198266
40
0.05291666666667
41
0.05291666666667
42
0.0
10
2506556.80001907
20
1138297.64897906
40
0.05291666666667
41
0.05291666666667
42
0.0
10
2506560.64602042
20
1138287.90302242
40
0.05291666666667
41
0.05291666666667
42
0.0
10
2506564.48501357
20
1138278.46898083
40
0.05291666666667
41
0.05291666666667
42
0.0
10
2506564.40201643
20
1138278.06200451
40
0.05291666666667
41
0.05291666666667
42
0.0
10
2506563.92100345
20
1138277.28799862
40
0.05291666666667
41
0.05291666666667
42
0.0
10
2506563.76001503
20
1138277.02999665
40
0.05291666666667
41
0.05291666666667
42
0.0
10
2506563.23199704
20
1138276.18000182
40
0.05291666666667
41
0.05291666666667
42
0.0
210
0.0
220
0.0
230
1.0
0
LWPOLYLINE
5
68
330
1A
100
AcDbEntity
67
0
8
Conduites_(transports__distribution)
62
175
420
18687
440
33554687
6
4
370
-1
48
1.0
60
0
100
AcDbPolyline
90
4
70
0
38
0.0
39
0.0
10
2506615.62802123
20
1138377.47200374
40
0.05291666666667
41
0.05291666666667
42
0.0
10
2506615.78500496
20
1138377.74302094
40
0.05291666666667
41
0.05291666666667
42
0.0
10
2506615.99700308
20
1138378.10599577
40
0.05291666666667
41
0.05291666666667
42
0.0
10
2506617.0957891
20
1138380.03280089
40
0.05291666666667
41
0.05291666666667
42
0.0
210
0.0
220
0.0
230
1.0
0
LWPOLYLINE
5
69
330
1A
100
AcDbEntity
67
0
8
Conduites_(transports__distribution)
62
175
420
18687
440
33554687
6
4
370
-1
48
1.0
60
0
100
AcDbPolyline
90
2
70
0
38
0.0
39
0.0
10
2506625.9625167
20
1138384.55189002
40
0.05291666666667
41
0.05291666666667
42
0.0
10
2506621.29190022
20
1138383.42827495
40
0.05291666666667
41
0.05291666666667
42
0.0
210
0.0
220
0.0
230
1.0
0
LWPOLYLINE
5
6A
330
1A
100
AcDbEntity
67
0
8
Conduites_(transports__distribution)
62
175
420
18687
440
33554687
6
4
370
-1
48
1.0
60
0
100
AcDbPolyline
90
4
70
0
38
0.0
39
0.0
10
2506621.29190022
20
1138383.42827495
40
0.05291666666667
41
0.05291666666667
42
0.0
10
2506619.16426003
20
1138382.83052535
40
0.05291666666667
41
0.05291666666667
42
0.0
10
2506617.29241923
20
1138380.4659078
40
0.05291666666667
41
0.05291666666667
42
0.0
10
2506617.0957891
20
1138380.03280089
40
0.05291666666667
41
0.05291666666667
42
0.0
210
0.0
220
0.0
230
1.0
0
LWPOLYLINE
5
6B
330
1A
100
AcDbEntity
67
0
8
Conduites_(transports__distribution)
62
175
420
18687
440
33554687
6
4
370
-1
48
1.0
60
0
100
AcDbPolyline
90
3
70
0
38
0.0
39
0.0
10
2506569.81099709
20
1138376.00799026
40
0.05291666666667
41
0.05291666666667
42
0.0
10
2506556.13799424
20
1138386.46397793
40
0.05291666666667
41
0.05291666666667
42
0.0
10
2506545.99076794
20
1138394.67178433
40
0.05291666666667
41
0.05291666666667
42
0.0
210
0.0
220
0.0
230
1.0
0
LWPOLYLINE
5
6C
330
1A
100
AcDbEntity
67
0
8
Conduites_(transports__distribution)
62
175
420
18687
440
33554687
6
4
370
-1
48
1.0
60
0
100
AcDbPolyline
90
4
70
0
38
0.0
39
0.0
10
2506536.02400287
20
1138312.19700604
40
0.05291666666667
41
0.05291666666667
42
0.0
10
2506528.70098202
20
1138318.60600711
40
0.05291666666667
41
0.05291666666667
42
0.0
10
2506520.58197956
20
1138326.14002492
40
0.05291666666667
41
0.05291666666667
42
0.0
10
2506516.46250814
20
1138329.62445308
40
0.05291666666667
41
0.05291666666667
42
0.0
210
0.0
220
0.0
230
1.0
0
INSERT
5
6F
330
1A
100
AcDbEntity
67
0
8
Branchement_d'immeuble
62
0
440
33554687
6
ByLayer
370
-1
48
1.0
60
0
100
AcDbBlockReference
2
5
10
2506548.80826554
20
1138375.75474387
30
0.0
41
0.17638888888889
42
0.17638888888889
43
0.17638888888889
50
143.9982
210
0.0
220
0.0
230
1.0
0
INSERT
5
75
330
1A
100
AcDbEntity
67
0
8
Branchement_d'immeuble
62
0
440
33554687
6
ByLayer
370
-1
48
1.0
60
0
100
AcDbBlockReference
2
5
10
2506535.56912047
20
1138385.38411406
30
0.0
41
0.17638888888889
42
0.17638888888889
43
0.17638888888889
50
143.9982
210
0.0
220
0.0
230
1.0
0
INSERT
5
77
330
1A
100
AcDbEntity
67
0
8
Branchement_d'immeuble
62
0
440
33554687
6
ByLayer
370
-1
48
1.0
60
0
100
AcDbBlockReference
2
5
10
2506525.00515644
20
1138393.06910856
30
0.0
41
0.17638888888889
42
0.17638888888889
43
0.17638888888889
50
143.9964
210
0.0
220
0.0
230
1.0
0
INSERT
5
79
330
1A
100
AcDbEntity
67
0
8
Branchement_d'immeuble
62
0
440
33554687
6
ByLayer
370
-1
48
1.0
60
0
100
AcDbBlockReference
2
5
10
2506585.90378204
20
1138348.53383458
30
0.0
41
0.17638888888889
42
0.17638888888889
43
0.17638888888889
50
144.0441
210
0.0
220
0.0
230
1.0
0
INSERT
5
7B
330
1A
100
AcDbEntity
67
0
8
Branchement_d'immeuble
62
0
440
33554687
6
ByLayer
370
-1
48
1.0
60
0
100
AcDbBlockReference
2
5
10
2506563.23199704
20
1138276.18000182
30
0.0
41
0.17638888888889
42
0.17638888888889
43
0.17638888888889
50
148.1223
210
0.0
220
0.0
230
1.0
0
INSERT
5
7E
330
1A
100
AcDbEntity
67
0
8
BH__arrosage__sprinkler
62
0
440
33554687
6
ByLayer
370
-1
48
1.0
60
0
100
AcDbBlockReference
2
6
10
2506571.85599054
20
1138378.5779982
30
0.0
41
0.17638888888889
42
0.17638888888889
43
0.17638888888889
50
0.0
210
0.0
220
0.0
230
1.0
0
INSERT
5
85
330
1A
100
AcDbEntity
67
0
8
BH__arrosage__sprinkler
62
0
440
33554687
6
ByLayer
370
-1
48
1.0
60
0
100
AcDbBlockReference
2
6
10
2506537.12298912
20
1138313.28598057
30
0.0
41
0.17638888888889
42
0.17638888888889
43
0.17638888888889
50
0.0
210
0.0
220
0.0
230
1.0
0
INSERT
5
88
330
1A
100
AcDbEntity
67
0
8
Composant_de_conduite
62
0
440
33554687
6
ByLayer
370
-1
48
1.0
60
0
100
AcDbBlockReference
2
7
10
2506538.32199243
20
1138310.36100719
30
0.0
41
0.17638888888889
42
0.17638888888889
43
0.17638888888889
50
141.5826
210
0.0
220
0.0
230
1.0
0
INSERT
5
8E
330
1A
100
AcDbEntity
67
0
8
Composant_de_conduite
62
0
440
33554687
6
ByLayer
370
-1
48
1.0
60
0
100
AcDbBlockReference
2
8
10
2506615.62802123
20
1138377.47200374
30
0.0
41
0.17638888888889
42
0.17638888888889
43
0.17638888888889
50
328.581
210
0.0
220
0.0
230
1.0
0
INSERT
5
94
330
1A
100
AcDbEntity
67
0
8
Composant_de_conduite
62
0
440
33554687
6
ByLayer
370
-1
48
1.0
60
0
100
AcDbBlockReference
2
9
10
2506614.07300123
20
1138378.31799389
30
0.0
41
0.17638888888889
42
0.17638888888889
43
0.17638888888889
50
150.8571
210
0.0
220
0.0
230
1.0
0
INSERT
5
9A
330
1A
100
AcDbEntity
67
0
8
Composant_de_conduite
62
0
440
33554687
6
ByLayer
370
-1
48
1.0
60
0
100
AcDbBlockReference
2
8
10
2506614.85101182
20
1138377.88698944
30
0.0
41
0.17638888888889
42
0.17638888888889
43
0.17638888888889
50
150.6717
210
0.0
220
0.0
230
1.0
0
INSERT
5
9C
330
1A
100
AcDbEntity
67
0
8
Composant_de_conduite
62
0
440
33554687
6
ByLayer
370
-1
48
1.0
60
0
100
AcDbBlockReference
2
10
10
2506554.80898877
20
1138298.64299245
30
0.0
41
0.17638888888889
42
0.17638888888889
43
0.17638888888889
50
168.5403
210
0.0
220
0.0
230
1.0
0
INSERT
5
A2
330
1A
100
AcDbEntity
67
0
8
Composant_de_conduite
62
0
440
33554687
6
ByLayer
370
-1
48
1.0
60
0
100
AcDbBlockReference
2
10
10
2506557.35702098
20
1138299.28399268
30
0.0
41
0.17638888888889
42
0.17638888888889
43
0.17638888888889
50
214.1217
210
0.0
220
0.0
230
1.0
0
INSERT
5
A4
330
1A
100
AcDbEntity
67
0
8
Composant_de_conduite
62
0
440
33554687
6
ByLayer
370
-1
48
1.0
60
0
100
AcDbBlockReference
2
7
10
2506569.81099709
20
1138376.00799026
30
0.0
41
0.17638888888889
42
0.17638888888889
43
0.17638888888889
50
321.4755
210
0.0
220
0.0
230
1.0
0
INSERT
5
A6
330
1A
100
AcDbEntity
67
0
8
Composant_de_conduite
62
0
440
33554687
6
ByLayer
370
-1
48
1.0
60
0
100
AcDbBlockReference
2
10
10
2506589.50199338
20
1138391.20497678
30
0.0
41
0.17638888888889
42
0.17638888888889
43
0.17638888888889
50
324.2916
210
0.0
220
0.0
230
1.0
0
INSERT
5
A8
330
1A
100
AcDbEntity
67
0
8
Composant_de_conduite
62
0
440
33554687
6
ByLayer
370
-1
48
1.0
60
0
100
AcDbBlockReference
2
10
10
2506574.927986
20
1138372.13100265
30
0.0
41
0.17638888888889
42
0.17638888888889
43
0.17638888888889
50
168.7239
210
0.0
220
0.0
230
1.0
0
INSERT
5
AA
330
1A
100
AcDbEntity
67
0
8
Composant_de_conduite
62
0
440
33554687
6
ByLayer
370
-1
48
1.0
60
0
100
AcDbBlockReference
2
10
10
2506575.29101088
20
1138372.22601385
30
0.0
41
0.17638888888889
42
0.17638888888889
43
0.17638888888889
50
252.1458
210
0.0
220
0.0
230
1.0
0
INSERT
5
AC
330
1A
100
AcDbEntity
67
0
8
Composant_de_conduite
62
0
440
33554687
6
ByLayer
370
-1
48
1.0
60
0
100
AcDbBlockReference
2
10
10
2506589.79798982
20
1138391.29498213
30
0.0
41
0.17638888888889
42
0.17638888888889
43
0.17638888888889
50
177.3054
210
0.0
220
0.0
230
1.0
0
INSERT
5
AE
330
1A
100
AcDbEntity
67
0
8
Composant_de_conduite
62
0
440
33554687
6
ByLayer
370
-1
48
1.0
60
0
100
AcDbBlockReference
2
7
10
2506536.02400287
20
1138312.19700604
30
0.0
41
0.17638888888889
42
0.17638888888889
43
0.17638888888889
50
314.7327
210
0.0
220
0.0
230
1.0
0
INSERT
5
B0
330
1A
100
AcDbEntity
67
0
8
Composant_de_conduite
62
0
440
33554687
6
ByLayer
370
-1
48
1.0
60
0
100
AcDbBlockReference
2
10
10
2506588.58997596
20
1138352.23101175
30
0.0
41
0.17638888888889
42
0.17638888888889
43
0.17638888888889
50
0.0
210
0.0
220
0.0
230
1.0
0
INSERT
5
B2
330
1A
100
AcDbEntity
67
0
8
Composant_de_conduite
62
0
440
33554687
6
ByLayer
370
-1
48
1.0
60
0
100
AcDbBlockReference
2
10
10
2506589.75699183
20
1138352.50798591
30
0.0
41
0.17638888888889
42
0.17638888888889
43
0.17638888888889
50
350.4807
210
0.0
220
0.0
230
1.0
0
INSERT
5
B4
330
1A
100
AcDbEntity
67
0
8
Composant_de_conduite
62
0
440
33554687
6
ByLayer
370
-1
48
1.0
60
0
100
AcDbBlockReference
2
7
10
2506593.72999182
20
1138348.14998532
30
0.0
41
0.17638888888889
42
0.17638888888889
43
0.17638888888889
50
42.354
210
0.0
220
0.0
230
1.0
0
INSERT
5
B6
330
1A
100
AcDbEntity
67
0
8
Composant_de_conduite
62
0
440
33554687
6
ByLayer
370
-1
48
1.0
60
0
100
AcDbBlockReference
2
7
10
2506556.65499934
20
1138299.10798668
30
0.0
41
0.17638888888889
42
0.17638888888889
43
0.17638888888889
50
194.1308
210
0.0
220
0.0
230
1.0
0
INSERT
5
B8
330
1A
100
AcDbEntity
67
0
8
Composant_de_conduite
62
0
440
33554687
6
ByLayer
370
-1
48
1.0
60
0
100
AcDbBlockReference
2
11
10
2506556.82599948
20
1138298.12198266
30
0.0
41
0.17638888888889
42
0.17638888888889
43
0.17638888888889
50
273.3426
210
0.0
220
0.0
230
1.0
0
INSERT
5
BE
330
1A
100
AcDbEntity
67
0
8
Composant_de_conduite
62
0
440
33554687
6
ByLayer
370
-1
48
1.0
60
0
100
AcDbBlockReference
2
11
10
2506556.80001907
20
1138297.64897906
30
0.0
41
0.17638888888889
42
0.17638888888889
43
0.17638888888889
50
279.2144
210
0.0
220
0.0
230
1.0
0
INSERT
5
C0
330
1A
100
AcDbEntity
67
0
8
Composant_de_conduite
62
0
440
33554687
6
ByLayer
370
-1
48
1.0
60
0
100
AcDbBlockReference
2
10
10
2506564.48501357
20
1138278.46898083
30
0.0
41
0.17638888888889
42
0.17638888888889
43
0.17638888888889
50
275.3316
210
0.0
220
0.0
230
1.0
0
INSERT
5
C2
330
1A
100
AcDbEntity
67
0
8
Composant_de_conduite
62
0
440
33554687
6
ByLayer
370
-1
48
1.0
60
0
100
AcDbBlockReference
2
10
10
2506564.40201643
20
1138278.06200451
30
0.0
41
0.17638888888889
42
0.17638888888889
43
0.17638888888889
50
68.3219
210
0.0
220
0.0
230
1.0
0
INSERT
5
C4
330
1A
100
AcDbEntity
67
0
8
Composant_de_conduite
62
0
440
33554687
6
ByLayer
370
-1
48
1.0
60
0
100
AcDbBlockReference
2
10
10
2506619.16426003
20
1138382.83052535
30
0.0
41
0.17638888888889
42
0.17638888888889
43
0.17638888888889
50
33.6636
210
0.0
220
0.0
230
1.0
0
INSERT
5
C6
330
1A
100
AcDbEntity
67
0
8
Composant_de_conduite
62
0
440
33554687
6
ByLayer
370
-1
48
1.0
60
0
100
AcDbBlockReference
2
10
10
2506617.29241923
20
1138380.4659078
30
0.0
41
0.17638888888889
42
0.17638888888889
43
0.17638888888889
50
58.6084
210
0.0
220
0.0
230
1.0
0
LWPOLYLINE
5
C8
330
1A
100
AcDbEntity
67
0
8
Conduites_(branchements__arrosage)
62
175
420
18687
440
33554687
6
12
370
-1
48
1.0
60
0
100
AcDbPolyline
90
6
70
0
38
0.0
39
0.0
10
2506585.90378204
20
1138348.53383458
40
0.01763888888889
41
0.01763888888889
42
0.0
10
2506586.16113325
20
1138348.88804915
40
0.01763888888889
41
0.01763888888889
42
0.0
10
2506588.58997596
20
1138352.23101175
40
0.01763888888889
41
0.01763888888889
42
0.0
10
2506589.75699183
20
1138352.50798591
40
0.01763888888889
41
0.01763888888889
42
0.0
10
2506593.36901934
20
1138348.54599881
40
0.01763888888889
41
0.01763888888889
42
0.0
10
2506593.72999182
20
1138348.14998532
40
0.01763888888889
41
0.01763888888889
42
0.0
210
0.0
220
0.0
230
1.0
0
LWPOLYLINE
5
CA
330
1A
100
AcDbEntity
67
0
8
Conduites_(branchements__arrosage)
62
175
420
18687
440
33554687
6
12
370
-1
48
1.0
60
0
100
AcDbPolyline
90
5
70
0
38
0.0
39
0.0
10
2506556.13799424
20
1138386.46397793
40
0.01763888888889
41
0.01763888888889
42
0.0
10
2506554.15697566
20
1138383.59997591
40
0.01763888888889
41
0.01763888888889
42
0.0
10
2506551.80502294
20
1138379.87902091
40
0.01763888888889
41
0.01763888888889
42
0.0
10
2506549.03257807
20
1138376.06350524
40
0.01763888888889
41
0.01763888888889
42
0.0
10
2506548.80826554
20
1138375.75474387
40
0.01763888888889
41
0.01763888888889
42
0.0
210
0.0
220
0.0
230
1.0
0
LWPOLYLINE
5
CB
330
1A
100
AcDbEntity
67
0
8
Conduites_(branchements__arrosage)
62
175
420
18687
440
33554687
6
12
370
-1
48
1.0
60
0
100
AcDbPolyline
90
3
70
0
38
0.0
39
0.0
10
2506526.07070355
20
1138394.67178433
40
0.01763888888889
41
0.01763888888889
42
0.0
10
2506525.28448336
20
1138393.48894994
40
0.01763888888889
41
0.01763888888889
42
0.0
10
2506525.00515644
20
1138393.06910856
40
0.01763888888889
41
0.01763888888889
42
0.0
210
0.0
220
0.0
230
1.0
0
LWPOLYLINE
5
CC
330
1A
100
AcDbEntity
67
0
8
Conduites_(branchements__arrosage)
62
175
420
18687
440
33554687
6
12
370
-1
48
1.0
60
0
100
AcDbPolyline
90
3
70
0
38
0.0
39
0.0
10
2506542.34425007
20
1138394.67178433
40
0.01763888888889
41
0.01763888888889
42
0.0
10
2506541.67701915
20
1138393.79100347
40
0.01763888888889
41
0.01763888888889
42
0.0
10
2506535.56912047
20
1138385.38411406
40
0.01763888888889
41
0.01763888888889
42
0.0
210
0.0
220
0.0
230
1.0
0
LWPOLYLINE
5
CE
330
1A
100
AcDbEntity
67
0
8
_admin.adm_ext_geo_commandes_asitvd
62
1
420
16711680
440
33554687
6
Continuous
370
-1
48
1.0
60
0
100
AcDbPolyline
90
5
70
1
38
0.0
39
0.0
10
2506516.4625
20
1138394.6718
40
0.07055555555556
41
0.07055555555556
42
0.0
10
2506625.9625
20
1138394.6718
40
0.07055555555556
41
0.07055555555556
42
0.0
10
2506625.9625
20
1138257.9218
40
0.07055555555556
41
0.07055555555556
42
0.0
10
2506516.4625
20
1138257.9218
40
0.07055555555556
41
0.07055555555556
42
0.0
10
2506516.4625
20
1138394.6718
40
0.07055555555556
41
0.07055555555556
42
0.0
210
0.0
220
0.0
230
1.0
0
VIEWPORT
5
D3
330
CF
100
AcDbEntity
67
1
8
0
62
256
6
ByLayer
370
-1
48
1.0
60
0
100
AcDbViewport
10
0.0
20
0.0
30
0.0
40
297.0
41
210.0
68
1
69
1
12
50.0
22
100.0
13
0.0
23
0.0
14
10.0
24
10.0
15
10.0
25
10.0
16
0.0
26
0.0
36
1.0
17
0.0
27
0.0
37
0.0
42
50.0
43
0.0
44
0.0
45
250.0
50
0.0
51
0.0
72
1000
90
819232
110
0.0
120
0.0
130
0.0
111
1.0
121
0.0
131
0.0
112
0.0
122
1.0
132
0.0
0
ENDSEC
0
SECTION
2
OBJECTS
0
DICTIONARY
5
D8
330
0
100
AcDbDictionary
280
0
281
1
3
ACAD_GROUP
350
D9
3
ACAD_LAYOUT
350
DA
3
ACAD_MLINESTYLE
350
DE
0
DICTIONARY
5
D9
330
D8
100
AcDbDictionary
280
0
281
1
0
DICTIONARY
5
DA
330
D8
100
AcDbDictionary
280
0
281
1
3
Model
350
1E
3
Layout1
350
D4
0
DICTIONARY
5
DE
330
D8
100
AcDbDictionary
280
0
281
1
3
Standard
350
19
0
LAYOUT
5
1E
330
DA
100
AcDbPlotSettings
1

2
none_device
4
ISO_A4_(210.00_x_297.00_MM)
6

40
7.5
41
20.0
42
7.5
43
20.0
44
210.0
45
297.0
46
0.0
47
0.0
48
0.0
49
0.0
140
0.0
141
0.0
142
1.0
143
1.0
70
11952
72
1
73
1
74
5
7

75
16
147
1.0
148
0.0
149
0.0
100
AcDbLayout
1
Model
70
1
71
0
10
-20.0
20
-7.5
11
277.0
21
202.5
12
0.0
22
0.0
32
0.0
14
25.7
24
19.5
34
0.0
15
231.3
25
175.5
35
0.0
146
0.0
13
0.0
23
0.0
33
0.0
16
1.0
26
0.0
36
0.0
17
0.0
27
1.0
37
0.0
76
0
330
1A
0
LAYOUT
5
D4
330
DA
100
AcDbPlotSettings
1

2
none_device
4
ISO_A4_(210.00_x_297.00_MM)
6

40
7.5
41
20.0
42
7.5
43
20.0
44
210.0
45
297.0
46
0.0
47
0.0
48
0.0
49
0.0
140
0.0
141
0.0
142
1.0
143
1.0
70
688
72
1
73
1
74
5
7

75
16
147
1.0
148
0.0
149
0.0
100
AcDbLayout
1
Layout1
70
1
71
1
10
-20.0
20
-7.5
11
277.0
21
202.5
12
0.0
22
0.0
32
0.0
14
25.7
24
19.5
34
0.0
15
231.3
25
175.5
35
0.0
146
0.0
13
0.0
23
0.0
33
0.0
16
1.0
26
0.0
36
0.0
17
0.0
27
1.0
37
0.0
76
0
330
CF
0
MLINESTYLE
5
19
330
DE
100
AcDbMlineStyle
2
Standard
70
0
3

62
256
51
90.0
52
90.0
71
2
49
-0.5
62
256
6
ByLayer
49
0.5
62
256
6
ByLayer
0
ENDSEC
0
EOF
